tablaturas, partituras y acordes para guitarra
Busca por banda/artista:
 
y/o título de la canción:
A B C D E F G H I J K L M N O P Q R S T U V W X Y Z 0 1 2 3 4 5 6 7 8 9 / Top 100 tabs
Categorías
Usuarios
usuario:
Darse de alta
password:
Artistas más visitados
Publicidad
TOP acordes y tablaturas de Dave Matthews Band


Space Between
de Dave Matthews Band
Puntúa este acorde/tab:      
(0.5/5)
Reportar este acorde/tab
  Añadir a tus favoritos
  Imprimir
This is the intro and chorus to one of the new DMB songs, 
"The Space Between".  Please feel free to e-mail me if you have
questions or comments.

I play this in Drop-d

Intro:

          "You cannot quit me so quickly..."
e--------------
b-------3------   play 4 times  
g-1-1-1-2------
d-2-2-2-0------
a-2-2-2-0------
D-------0------


Lead into chorus and chorus...the third chord in the chorus is a bit
of a stretch, but if you're used to playing Dave, it shouldn't be
too hard:
          
           "The Space Between..."
e---------------------------------------------------------
b---------------------------------------------------------
g-1-1-1---9-9-9-9-9-9-9-9-9-9-9-9-9-9-9-9-9-9-9-9-9-9-9-9-
d-2-2-2---7-7-7-7-7-7-7-7-7-7-7-7-7-7-7-7-7-7-7-7-7-7-7-7-
a-2-2-2---7-7-7-7-7-7-7-7-x-x-x-x-x-x-x-x-x-x-x-x-x-x-x-x-
D---------7-7-7-7-7-7-7-7-6-6-6-6-6-6-6-6-4-4-4-4-4-4-4-4-


e---------------                                         e---
b---------------                                         b--- 
g-9-9-9-9-9---9-<<<<<---then repeat with the "A" chord   g-9-
d-7-7-7-7-7---7-                                         d-7-
a-x-x-x-x-x---x-                                         a-7-
D-4-4-4-4-4---6-                                         D-7-


I'm still working on the bridge part.  please email me and let me 
know what you think at "satellite1182@fm.davematthewsband.com"

ENJOY!!





		   
AcordesyTabs.com © 2008 Acordes y Tablaturas para guitarra. Tabs and Chords for guitar. Aviso Legal - Contacto
El uso de este sitio está sujeto a la aceptación de los términos y condiciones (37 usuarios online)