tablaturas, partituras y acordes para guitarra
Busca por banda/artista:
 
y/o título de la canción:
A B C D E F G H I J K L M N O P Q R S T U V W X Y Z 0 1 2 3 4 5 6 7 8 9 / Top 100 tabs
Categorías
Usuarios
usuario:
Darse de alta
password:
Artistas más visitados
Publicidad
TOP acordes y tablaturas de Silvio Rodriguez


Estás en: Inicio > Letra S > Acordes y tablaturas de Silvio Rodriguez > El viento eres tú
El viento eres tú
de Silvio Rodriguez
Puntúa este acorde/tab:      
(0.1/5)
Reportar este acorde/tab
  Añadir a tus favoritos
  Imprimir
Esta trascripción quiero dedicarla a  genito, tarde horas en 
hacerla, pero son mas de las que pienso en ti.


Esta  canción esta armonizada en el relativo menor de C o sea A
menor, el compás es 6/8, creo, después de escucharla con 
atención les saldrá bien. 

             
Intro:


e:-----------------------------------------------------|
B:--------1--------------1-------------1---------------|
G:------2--------------0-------------2-------------0---|
D:----2--------------2-------------2-------------2-----|
A:--0--------0-h2-h3-------3--2--0-------0-h2-h3------2|
E:-----------------------------------------------------|


e:-----------------------------------------1--------------------|
B:------------1-------------1------------3-------------3------3-|
G:----------3-------------3------------2-------------2------2---|
D:---0----2-------------2--------------------0-h2-h3------2-----|
A:-0----0-------0-h2-h3-------3--2—0----------------------------|
E:--------------------------------------------------------------|
                                                           

e:------------------------1----------------------------------------|
B:----3------0----------3---------------0----------3-----------1---|
G:--0------1----------2---------------1----------2-------0---0-----|
D:0------2----------0-------0-------2----------0-------2-----------|
A:-----2-------2-h3------------3--2-------2-h3-------3-----2-------|
E:-----------------------------------------------------------------|


                                                     
e:---------------------------------------0-|
B:--------1------------------1-------1-----|
G:------2-------------0----0-------2---2---|
D:----2-------------2------------2---------|
A:--0-------0-h2-h3------2-----0-----------|
E:-----------------------------------------|

             
    A veces entra en el bosque....
e:---------------------------------1-----------1...|
B:-------1------------1----------3---3-------3--...|
G:-----2---2--------2---2------2-------2---2----...|
D:---2-------2----2-------2--0-----------4------...|
A:-0------------2-------------------------------...|
E:----------------------------------------------...|
          ...( se puede seguir esta secuencia con 
                        los acordes que hay sobre la letra)

    Lam			
A) A veces entra en el bosque
         Rem
un silbido veloz
    Rem/fa
que recorre fugaz 
		Mi
la penumbra y la luz 
Rem 	           Mi       Rem
y los arboles fríos del bosque
 Lam
soy yo.


          Inter.

E:----------------------------------|
B:-------0----------3-----------1---| 
G:-----1----------2-------0---0-----| 
D:---2----------0-------2-----------|
A:-2-------2-h3-------3-----2-------|
E:----------------------------------|
                                     

       
e:---------------------------------------0-|
B:--------1------------------1-------1-----|
G:------2-------------0----0-------2---2---|
D:----2-------------2------------2---------|
A:--0-------0-h2-h3------2-----0-----------|
E:-----------------------------------------|
   Todas la copas se postran......
e:---------------------------------1-----------1...|
B:-------1------------1----------3---3-------3--...|
G:-----2---2--------2---2------2-------2---2----...|
D:---2-------2----2-------2--0-----------4------...|
A:-0------------2-------------------------------...|
E:----------------------------------------------...|
          

        

A) Todas la copas se postran
a fin de existir 
de no hacerlo deshechas
habrían de morir
y ese viento que trae
la muerte eres tu.


E:----------------------------------|
B:-------0----------3-----------1---| 
G:-----1----------2-------0---0-----| 
D:---2----------0-------2-----------|
A:-2-------2-h3-------3-----2-------|
E:----------------------------------|
                                            
e:---------------------------------------0---------------------------|
B:--------1------------------1-------1------------1------------1-----|
G:------2-------------0----0-------2---2--------2---2--------2---2---|
D:----2-------------2------------2------------2-------2----2-------2-|
A:--0-------0-h2-h3------2-----0------------0------------2-----------|
E:-------------------------------------------------------------------|


( * )
e:-------3-p1---3-p1-|	
B:-----3------3------|
G:---2---------------|
D:-0-----------------|
A:-------------------|
E:-------------------|
     

  *Rem Sol   	     Do  Do/Si Lam Lam/Sol
B) Eres  la llama que abraza la flor
 *Rem Sol   	     Do  Do/Si Lam Lam/Sol
y, la inocencia del fiero huracán
Do7		      Fa	  Fam
la sombra obscura que sigue mi amor
    Do	  Sol
por que , por que 
    Lam    Mi
tu sigues, di
   Fa	      Sol
matando este amor 
	     Lam 
que hoy dejas .


outro:

E:---------------------------------- -----------------------------|
B:-------0----------3-----------1-----------1------------------1--| 
G:-----1----------2-------0---0-----------2-------------0----0----| 
D:---2----------0-------2---------------2-------------2-----------|
A:-2-------2-h3-------3-----2---------0-------0-h2-h3------2------|
E:----------------------------------------------------------------| 

                                          (** armonicos) 
e:------------------------------------------------**12-|
B:------1-----------------------------------------**12-|
G:----2---2--0-----------------------------------------|
D:--2---------3--2--0----------------------------------|
A:0--------------------3------2—-------0---------------|
E:-----------------------------------------------------|



Para cualquier corrección favor de mandarla a mi correo.
Un saludo para mis excompañeros de la prepa vocasional generación 98-2001
Grupo “g” turno vesp.- ¡ya comuníquense no¡ - y arriba silvio.
		   
AcordesyTabs.com © 2008 Acordes y Tablaturas para guitarra. Tabs and Chords for guitar. Aviso Legal - Contacto
El uso de este sitio está sujeto a la aceptación de los términos y condiciones (26 usuarios online)