tablaturas, partituras y acordes para guitarra
Busca por banda/artista:
 
y/o título de la canción:
A B C D E F G H I J K L M N O P Q R S T U V W X Y Z 0 1 2 3 4 5 6 7 8 9 / Top 100 tabs
Categorías
Usuarios
usuario:
Darse de alta
password:
Artistas más visitados
Publicidad
TOP acordes y tablaturas de Dave Matthews Band


Stay Or Leave
de Dave Matthews Band
Puntúa este acorde/tab:      
(0.6/5)
Reportar este acorde/tab
  Añadir a tus favoritos
  Imprimir
Dave Matthews Band- Stay Or Leave
Capo on 2nd fret

Intro/Verse
e:---------------------------------------------|
B:----1-----1-------------1-----1-----1-----1--|
G:----2-----0-----0-0-----0-----0-----0-----0--|
D:----2-----2---3/5-3--2--2-----2--0--0-----0--|
A:-0--0--3--3-------------3--3--3-----3--2--2--|
E:---------------------------------------------|

Chorus
e:-1---1---3---3--|
B:-3---1---1---3--|
G:-2---2---0---0--|
D:-0---3---2---0--|
A:-0---3---3---x--|
E:-----1-------3--|

There’s more to this, but this is all I could get.
Transcribed by Colin Hoffman.
		   
AcordesyTabs.com © 2008 Acordes y Tablaturas para guitarra. Tabs and Chords for guitar. Aviso Legal - Contacto
El uso de este sitio está sujeto a la aceptación de los términos y condiciones (32 usuarios online)