tablaturas, partituras y acordes para guitarra
Busca por banda/artista:
 
y/o título de la canción:
A B C D E F G H I J K L M N O P Q R S T U V W X Y Z 0 1 2 3 4 5 6 7 8 9 / Top 100 tabs
Categorías
Usuarios
usuario:
Darse de alta
password:
Artistas más visitados
Publicidad
TOP acordes y tablaturas de Dave Matthews Band


Stay Or Leave
de Dave Matthews Band
Puntúa este acorde/tab:      
(0.2/5)
Reportar este acorde/tab
  Añadir a tus favoritos
  Imprimir
Capo 7th

Verse                               Chorus Am C G D
E----------------------------------|-------0--0-2-2----------------------
B-----------3-1--1-1-1-1-----------|-------1--1-2-3----------------------
G--0-0------0-0--0-0-0-0-----------|-------2--0-0-2------REPEAT----------
D--2-0------4-2--0-0-0-0--REPEAT---|-------2--2-0-0----------------------
A--2-2--4/5-5-3--3-2-2-0-----------|-------0--3-2-X----------------------
E--0-3--------0--0-0-3-3-----------|-------0--0-3-X----------------------

Remember we used to dance......
Em G D      REPEAT

What Day is this......

Am G D    REPEAT

So what to do......
E----------------------------------------------------
B----3---3---3---3-----------------------------------
G----2---2---2---2-----REPEAT------------------------
D----------------------------------------------------
A--4---3---2---0-------------------------------------
E----------------------------------------------------
		   
AcordesyTabs.com © 2008 Acordes y Tablaturas para guitarra. Tabs and Chords for guitar. Aviso Legal - Contacto
El uso de este sitio está sujeto a la aceptación de los términos y condiciones (18 usuarios online)