tablaturas, partituras y acordes para guitarra
Busca por banda/artista:
 
y/o título de la canción:
A B C D E F G H I J K L M N O P Q R S T U V W X Y Z 0 1 2 3 4 5 6 7 8 9 / Top 100 tabs
Categorías
Usuarios
usuario:
Darse de alta
password:
Artistas más visitados
Publicidad
TOP acordes y tablaturas de Dave Matthews Band


Stay
de Dave Matthews Band
Puntúa este acorde/tab:      
(0.1/5)
Reportar este acorde/tab
  Añadir a tus favoritos
  Imprimir
Artist: Dave Matthews Band
Song: Stay (Wasting Time)
Album: Before These Crowded Streets
Transcripted By: Chris McAleenan


"We were walking..."
E-----------------------------------------------
B-----------------------------------------------
G--10-10-10-x-x-x-10--8--7--8-8-8-x-7-8-8-8-x-x-
D---8--8--8-x-x-x--8--6--5--5-5-5-x-6-6-6-6-x-x-
A-----------------------------------------------
E-----------------------------------------------


""Wasting time..."
E-------------------------------------
B-------------------------------------
G--7--10---7---5-------7--10---7--10--
D--8--10---8---5-------8--10---8--10--
A--6---8---6---3-------6---8---6---8--
E-------------------------------------



Transition after "Stay, stay, stay for a while..."
E-8-8-8-8-6-------------------------  
B-----------9-6-6-8-8-8-8-8-8-9-9-9-
G-----------------------------------
D-----------------------------------
A-----------------------------------
E-----------------------------------



Jam
E-----------------------------------  
B-----------------------------------
G---------------------------8-9-10--
D----8---8------------------x-x--x--
A------7---7---------6h8p6--6-7--8--
E--6---------6-7-8-8----------------

		   
AcordesyTabs.com © 2008 Acordes y Tablaturas para guitarra. Tabs and Chords for guitar. Aviso Legal - Contacto
El uso de este sitio está sujeto a la aceptación de los términos y condiciones (22 usuarios online)