tablaturas, partituras y acordes para guitarra
Busca por banda/artista:
 
y/o título de la canción:
A B C D E F G H I J K L M N O P Q R S T U V W X Y Z 0 1 2 3 4 5 6 7 8 9 / Top 100 tabs
Categorías
Usuarios
usuario:
Darse de alta
password:
Artistas más visitados
Publicidad
TOP acordes y tablaturas de Dave Matthews Band


Estás en: Inicio > Letra D > Acordes y tablaturas de Dave Matthews Band > Tripping Billies Acoustic
Tripping Billies Acoustic
de Dave Matthews Band
Puntúa este acorde/tab:      
(0.3/5)
Reportar este acorde/tab
  Añadir a tus favoritos
  Imprimir
CORRECT ACOUSTIC INTRO TO:
"Tripping Billies"    By: Dave Matthews Band
Tabbed by: CHRIS NIGHLAND
Email: Bigmac2579@aol.com
9:01 PM 1/1/03

hopefully some band can get this tab and play it for 
some chicks because i aint got any right now.

 CORRECT INTRO
         A.B.
e|--x---x---x--|    |----------------------------------------|
B|--x---x---x--|    |----------------------------------------|
G|--6---4---7--|    |-2--4----2--3--7--6--2--3----2--3--6--7-|and so on
D|--2---2---0--|x3  |-0--0----0--0--0--0--0--0----0--0--0--0-|
A|--x---x---x--|    |-x--x----x--x--x--x--x--x----x--x--x--x-|
E|--5---5---7--|    |-2--3----2--4--7--5--2--4----2--4--5--7-|


i play this for the verses, its not the correct way but it works

e|--------------------------------------------------------|
B|------2--------------1---------------2------------------|
G|----2--------7-------0-------4-----2---------7---2--4---|
D|--2----------7-------2-------4---2-----------7---0--0---|
A|--0-----3s7--5--7s3--3--3s4--2---0------3s7--5---x--x---|
E|-------------------------------------------------2--3---|

Heres the chorus

e|-------------------------|
B|-------------------------|
G|---7--6----2--3--6--7--6-|
D|---0--0----0--0--0--0--0-|x4
A|---x--x----x--x--x--x--x-|
E|---7--5----2--4--5--7--5-|
"Eat drink and be merry, for tommorow we die"......


after the second chorus the song slows down and he plays the intro B.


We were above
You were standing underneath us
We were not yet lovers
Dragons were smoked
Bumblebees were stinging us
I was soon to be crazy

Eat drink and be merry
For tomorrow we die
Eat drink and be merry
For tomorrow we die
We're tripping billies

We're wearing nothing
Nothing but our shadows
Shadows falling down on
The beach sand
Remembering once out on
The beaches
We wore pineapple grass bracelets

So why would you care
To get out of this place
You and me and all our friends
Such a happy human race
We're tripping billies

We are all sitting
Legs crossed around a fire
My yellow flame she dances
Tequila drinking, oh,
Our minds will wander
To wondrous places

So why would you care
To get out of this place
You and me and all our friends
Such a happy human race
Eat drink and be merry
For tomorrow we die
Eat drink and be merry
For tomorrow we die







		   
AcordesyTabs.com © 2008 Acordes y Tablaturas para guitarra. Tabs and Chords for guitar. Aviso Legal - Contacto
El uso de este sitio está sujeto a la aceptación de los términos y condiciones (25 usuarios online)