tablaturas, partituras y acordes para guitarra
Busca por banda/artista:
 
y/o título de la canción:
A B C D E F G H I J K L M N O P Q R S T U V W X Y Z 0 1 2 3 4 5 6 7 8 9 / Top 100 tabs
Categorías
Usuarios
usuario:
Darse de alta
password:
Artistas más visitados
Publicidad
TOP acordes y tablaturas de Dave Matthews Band


Estás en: Inicio > Letra D > Acordes y tablaturas de Dave Matthews Band > Tripping Billies Correct
Tripping Billies Correct
de Dave Matthews Band
Puntúa este acorde/tab:      
(0.2/5)
Reportar este acorde/tab
  Añadir a tus favoritos
  Imprimir
song name: tripping billies
artist: dave matthews

album: crash

this is the correct tab. I got this from the book crash and i'm posting this 
because the other tabs were way off one way or another.
THIS IS FROM THE SONGBOOK. so there shouldn't be any reason to post another
tripping billies tab.

here is the intro.

-------------------------------------------------------------------
-------------------------------------------------------------------
--2-4---2-4-7-6-2-4---2-4-6-7-2-4---2-4-7-6-2-4--2-3-6-7-----------
--0-0---0-0-0-0-0-0---0-0-0-0-0-0---0-0-0-0-0-0--0-0-0-0-----------
--x-x---x-x-x-x-x-x---x-x-x-x-x-x---x-x-x-x-x-x--x-x-x-x-----------
--2-3---2-3-7-5-2-3---2-3-5-7-2-3---2-3-7-5-2-3--2-3-5-7-----------


verse(even eighth notes)
  1 + 2 + 3 + 4 +   1   + 2 + 3 + 4 +   1 + 2 + 3 + 4 +   1 + 2 + 3 + 4 + 
------------------|-------------------|-----------------|---------------
------------------|-------------------|-----------------|---------------
----6-4-0---7-7---|---4h5-4-----------|---6-4-0---7-7---|---2---4------
----2-2-0---7-7---|-----------9-9-9-9-|---2-2-0---7-7---|---0---0------
----------3/5-5---|-7---------9-9-9-9-|---------3/5-5---|---x---x------
--5-------------8-|---------3/7-7-7-7-|-5---------------|---2---3------

that 4 hammer-on before the 5 is a grace note so its sorta not there.
its more like a 32nd note.

oh yeah, the acoustic intro...
that intro the other guy had was good.

here's my version. I figured it out by accident so its probably not right.

listen for the strumming 'cause I don't feel like writin all that...

-----------------------------------------------------------------
-----------------------------------------------------------------
--6-4--6-7----------------------6-4--6---------------------------
--7-2--7-5--repeat a few times--7-2--7---------------------------
--7-0--7-5----------------------7-0--7-->to intro----------------
--5-0--5-3----------------------5-0--5---------------------------

		   
AcordesyTabs.com © 2008 Acordes y Tablaturas para guitarra. Tabs and Chords for guitar. Aviso Legal - Contacto
El uso de este sitio está sujeto a la aceptación de los términos y condiciones (22 usuarios online)