tablaturas, partituras y acordes para guitarra
Busca por banda/artista:
 
y/o título de la canción:
A B C D E F G H I J K L M N O P Q R S T U V W X Y Z 0 1 2 3 4 5 6 7 8 9 / Top 100 tabs
Categorías
Usuarios
usuario:
Darse de alta
password:
Artistas más visitados
Publicidad
TOP acordes y tablaturas de Dave Matthews Band


Tripping Billies
de Dave Matthews Band
Puntúa este acorde/tab:      
(0.2/5)
Reportar este acorde/tab
  Añadir a tus favoritos
  Imprimir
        Tripping Billies by Dave Matthews band
               Tabbed By Michael Cooper          

                        Inrro
e----------------------------------------------------
b----------------------------------------------------
g--2----4----2----4----7----6----2----4----2--4--6--7
d--0----0----0----0----0----0----0----0----0--0--0--0   and so on
a--x----x----x----x----x----x----x----x----x--x--x--x
E--2----3----2----3----7----5----2----3----2--3--5--7

                 verse - lead
e-------------------------------------------------------   this part is
b--2--0--0----------------------------2--0--0----------  same for lead and   
g--2--2--0-------7--------------------2--2--0-------7---  2--4 rythm
d--2--2--0-------7--------------9--9--2--2--0-------7---  0--0
a--0--0--0--2/5--5--------------9--9--0--0--0--2/5--5---  x--x
E-------------------8--8--7--7--7--7--------------------  2--3

                 verse - rythm
  A  A  A  D  D  D   G  G  G  D  D  D  A  A  A  D  D  D    ^

                 Bridge 
e------                   -------------
b------                   -------------
g--7--6  or D  A          2--4--6--7--6
d--0--0                   0--0--0--0--0
a--x--x                   x--x--x--x--x
E--7--5                   2--3--5--7--5
  
 thats it, and if there are any questions or comments cpntact me
at mightymightycoop@aol.com
		   
AcordesyTabs.com © 2008 Acordes y Tablaturas para guitarra. Tabs and Chords for guitar. Aviso Legal - Contacto
El uso de este sitio está sujeto a la aceptación de los términos y condiciones (32 usuarios online)