tablaturas, partituras y acordes para guitarra
Busca por banda/artista:
 
y/o título de la canción:
A B C D E F G H I J K L M N O P Q R S T U V W X Y Z 0 1 2 3 4 5 6 7 8 9 / Top 100 tabs
Categorías
Usuarios
usuario:
Darse de alta
password:
Artistas más visitados
Publicidad
TOP acordes y tablaturas de Dave Matthews Band


What You Are
de Dave Matthews Band
Puntúa este acorde/tab:      
(0.3/5)
Reportar este acorde/tab
  Añadir a tus favoritos
  Imprimir
Dave Mattews Band
What you are
Everyday, 2001
tabbed by Scott Weber...drummerboy2424@juno.com 


with distortion
E-------------------------------------------------------------------------------
B-------------------------------------------------------------------------------
G-------------------------------------------------------------------------------
D---11-9----------------11-9-----------------11-9-----------------11-9----------
A--9-----12--11-12-----9-----12--11-12-----9------12--11-12-----9------12--11-12
E-----------------12------------------12-------------------12-------------------

E--------------------------------------------------------------------
B--------------------------------------------------------------------
G--------------------------------------------------------------------
D--12------11---10---------------11-9----------------11-9------------
A-------------------12--11------9-----12--11-12-----9-----12--11-12--
E----------------------------------------------12------------------12

  

  but i do...
E----------------------------------
B----------------------------------
G----------------------------------
D-------12------11---10------------
A------------------------12--11----
E----------------------------------

 than i have...
E----------------------------------
B----------------------------------
G----------------------------------
D-------12------11---10------------
A------------------------12--11----
E----------------------------------

             what you've become
E--------------------------------
B---------------------------------
G-----------------------------------
D--7--7-7--9--10--10-10--9--9-9--12-------10--10-10--9
A--7--7-7--9--10--10-10--9--9-9--12-------10--10-10--9
E--5--5-5--7--8---8--8---7--7-7--10-------8---8--8---7


there,...thats most of what u need to play this song...if u 
have any questions email me at drummerboy2424@juno.com









		   
AcordesyTabs.com © 2008 Acordes y Tablaturas para guitarra. Tabs and Chords for guitar. Aviso Legal - Contacto
El uso de este sitio está sujeto a la aceptación de los términos y condiciones (33 usuarios online)