tablaturas, partituras y acordes para guitarra
Busca por banda/artista:
 
y/o título de la canción:
A B C D E F G H I J K L M N O P Q R S T U V W X Y Z 0 1 2 3 4 5 6 7 8 9 / Top 100 tabs
Categorías
Usuarios
usuario:
Darse de alta
password:
Artistas más visitados
Publicidad
TOP acordes y tablaturas de Dave Matthews Band


Estás en: Inicio > Letra D > Acordes y tablaturas de Dave Matthews Band > Where Are You Going
Where Are You Going
de Dave Matthews Band
Puntúa este acorde/tab:      
(0.2/5)
Reportar este acorde/tab
  Añadir a tus favoritos
  Imprimir
I'm just correcting this last tab a little bit...

Title: Where are you Going
Artist: Dave Matthews Band
Tabbed By: Anthony Agueci (agueci@hotmail.com)
These tabs are almost exact but if you disagree, please e-mail me corrections.
The strumming pattern is tricky and it changes between the verse and chorus
so listen to the song to pick it up (its a bit like crash). Enjoy!

Intro:
E---------------2-------------2----------------2----------------2---
B----------3----3-------3-----3---------3------3---------3------3---
G—0h2-----------2---0h2-------2----0h2---------2----0h2---------2--- 
D------------0------------0---------------0----------------0--------  
A-------------------------------------------------------------------
E-------------------------------------------------------------------

Verse:  
E----2----------3--------------------------3----------------
B----3----------3-------------3------------3----------------
G----2----------2-------------2------------2----------------
D-0--0------------------------4------------2----------------
A-------------------------2---2--------0---0----------------
E------------3--3-------------------------------------------

Chorus
D         C         G           ?           
E----------------------------3----------3-------------
B-------3---------3----------3----------3------3-----
G-------2---------2----------2----------2------2-----
D-----------------2-----------------------------------
A---4--------3----3-------2----------1------0--------
E----------------------------------------------------

D         C         G           ?           
E----------------------------3----------3-------------
B-------3---------3----------3----------3------3-----
G-------2---------2----------2----------2------2-----
D-----------------2-----------------------------------
A---4--------3----3-------2----------1------0--------
E----------------------------------------------------



Bridge:
    “Where you go, I do know it’s where I want to be”
D         C          G        G   
E-------2---------3----------3--------3---
B-------3---------3----------3--------3---
G-------2---------------------------------
D--0----0---------2-----------------------
A------------3----3----------2--------2---
E------------------------3---3--------3---

Song Arrangement
Intro – 2x
Verse – 2x
Chorus- 2x
Verse - 3x
Chorus -2x
Bridge- 1x
Verse – 2x
Chorus -2x
Bridge –2x

Lyrics: 

Where are you going?
With your long face pulling down
Don’t hide away like an ocean
Which you can’t see but you can you can smell
And the sound of waves coming down

I am no superman, not at all
And I have no answers for you
I am no hero oh that’s for sure
But I do know one thing
It’s where you go, where I want to be

Where are you going?
Where do you go?
Are you looking for answers? for reasons under the stars
if along the way you are growing weary
you can rest with me until a brighter day, yeah

I am no superman, not at all
And I have no answers yeah
I am no hero oh don’t you know
But I do know one thing
Where you are, is where I belong

Where you go, I do know, it’s where I belong
Where are you going, with your beautiful face looking down
Don’t hide away you are like an ocean 
that I can’t see but I can smell
and the sound of your waves coming down

I am no superman, not at all
I have no answers for you
I am no hero oh that I know
But I do know one thing
It’s where you are, is where I belong
Where you are, I do know, it’s where I want to be
Where you are, I do know, it’s where I want to be



		   
AcordesyTabs.com © 2008 Acordes y Tablaturas para guitarra. Tabs and Chords for guitar. Aviso Legal - Contacto
El uso de este sitio está sujeto a la aceptación de los términos y condiciones (16 usuarios online)