tablaturas, partituras y acordes para guitarra
Busca por banda/artista:
 
y/o título de la canción:
A B C D E F G H I J K L M N O P Q R S T U V W X Y Z 0 1 2 3 4 5 6 7 8 9 / Top 100 tabs
Categorías
Usuarios
usuario:
Darse de alta
password:
Artistas más visitados
Publicidad
TOP acordes y tablaturas de Pastilla


Julio
de Pastilla
Puntúa este acorde/tab:      
(0.7/5)
Reportar este acorde/tab
  Añadir a tus favoritos
  Imprimir
base:
    E    D#   F#                   fig. 2
e|-----------------------||----------------------|
b|-----------------------||----------------------|
g|--9999-888--1111-------||--------999/88/9------|
d|--9999-888--1111-------||--------999/88/9------|
a|--7777-666--9-9--------||--------777/66/7------|
e|-----------------------||----------------------|
   -en el intro el f# se toca muy rápido-
   -a veces en la cuarta vez se hace la figura 2-


estribillo:
    E    G#m    E    C
e|------------------------------------|
b|------------------------------------|
g|--9----13-----9----12-11-12-11------|
d|--x----xx-----x----xx-x--10-9-------|
a|--7----11-----7----10-9--10-9-------|
e|------------------------------------|
   -adrian hace más adornos pero no los alcanzo a oir muy bien-


e|--3-4--4/7---3-4-—4/7---3-4—7-10-7-10-7------|
b|---------------------------------------------|
g|---------------------------------------------|
d|---------------------------------------------|
a|---------------------------------------------|
e|---------------------------------------------|

e|--3-4--4/7---3-4-—4/7---3-4—7-10-7-10-12-----|
b|--------------------------------------16b----|
g|---------------------------------------------|
d|---------------------------------------------|
a|---------------------------------------------|
e|---------------------------------------------|
   -esto va justo antes de la segunda parte-


segunda parte:
    C#m     A       E       B
g|-----------------------------------|
d|------------------2-2-2------------|
a|--4-4-4---0-0-0-----------2-2-2----|
e|-----------------------------------|
   -esto es el bajo, a la guitarra métanle quintas o lo que sea-
   -jueguen con octavas en la quinta cuerda sobre las notas y suena bien-


gracias a adrián por su apoyo a remi
		   
AcordesyTabs.com © 2008 Acordes y Tablaturas para guitarra. Tabs and Chords for guitar. Aviso Legal - Contacto
El uso de este sitio está sujeto a la aceptación de los términos y condiciones (26 usuarios online)