tablaturas, partituras y acordes para guitarra
Busca por banda/artista:
 
y/o título de la canción:
A B C D E F G H I J K L M N O P Q R S T U V W X Y Z 0 1 2 3 4 5 6 7 8 9 / Top 100 tabs
Categorías
Usuarios
usuario:
Darse de alta
password:
Artistas más visitados
Publicidad
TOP acordes y tablaturas de Edel Juarez


Juro
de Edel Juarez
Puntúa este acorde/tab:      
(0.4/5)
Reportar este acorde/tab
  Añadir a tus favoritos
  Imprimir
Ps una cancion muy facil y muy buena .. en esta okasion
kiesiera  hacer una mension..muy especial, por ke esta
kancion se la kiero dedikar a una chava ke kiero mucho
ke  fue y es una persona ..  a la ke no olvidare nunka
Diana Gutierrez. F. Y no la dediko precisamente por lo ke 
dice si no por ke en verdad ella sigue siendo mi musa e
inspiracion, para todo lo ke hago ....  te amo ¡¡¡¡

Bien trate de poner la rola exactamente komo es ¡ pero
en verdad lleva mucho arreglos .. la mayoria  los puse
pero faltaron algunos ke salen kon las pisadas ke pongo.
lleva kapo en el 1 traste para ke suene igualita..
kualkier kosa no duden en agregarme al msn ¡¡¡

intro (x2)  
G

1 --------------------------|--------------------------|
2 ------3-----1-----0-------|------3-----1-------------|
3 ----0---0-----0-----0---0-|----0---0-----0---0h2-0---|
4 --0-------0-----0-----0---|--0-------0-----0---------|
5 --------------------------|-3------------------------|
6 -3------------------------|--------------------------|

   

1 --------------------------|--------------------------|
2 ------3-----1-----0-------|------3-----1-----0-------|
3 ----0---0-----0-----0---0-|----0---0-----0-----0-----|
4 --0-------0-----0-----0---|--0-------0-----0------0--|
5 --------------------------|-3------------------------|
6 -3------------------------|--------------------------|
  Si existiera un dios ,     y así hablarle de tu, y de tí,
  preferiria ke fuera mujer  y que me akonsejara.
  
  B7                          
1 -------------2------2------|-------------0------0-----|
2 -------0-------0-------0---|-------0-------0-------0--|
3 -----2---2--------2------2-|-----2---2--------2-------|
4 ---1-------1---------------|---1-------1--------------|
5 -2-------------------------|-2------------------------|
6 ---------------------------|--------------------------|
Preferiría que fuera mujer,    y que su sexo no fuera barrera,
y que fuera mi amiga,          sino pretexto.

  Am                          C
1 ---------------------------|---------------------------|
2 --------3------1------0----|-------3------ 1------1-3--|
3 ------2----2------2--------|-----0----0-------0--------|
4 ---2---------2------2------|---2---------2------2------|
5 -0-------------------------|-3-------------------------|
6 ---------------------------|---------------------------|
Que fuera mujer y amiga        Que fuera mujer y amiga
de aquellas que dan la vida    para que me escuchara y 
cada vez que lo solicitas.     consolara y cerrara mis heridas.

   G
1 --------------------------|--------------------------|
2 ------3-----1-----0-------|------3-----1-------1---1-|
3 ----0---0-----0-----0---0-|----0---0-----0---4---4---|
4 --0-------0-----0-----0---|--0-------0-----0---------|
5 --------------------------|-3------------------------|
6 -3------------------------|--------------------------|
                  Si existiera un dios
                            
1 --------------------------|--------------------------|
2 ------3-----1-----0-------|------3-----1-----0-------|
3 ----0---0-----0-----0---0-|----0---0-----0-----0-----|
4 --0-------0-----0-----0---|--0-------0-----0------0--|
5 --------------------------|-3------------------------|
6 -3------------------------|--------------------------|
      en definitiva me gustaría que 
                       fuera como tu, aunque entonces 

1 --------------------------|
2 -0h1--0--3--1--0----------|
3 ------------------0-------|
4 ---------------------0----|
5 --------------------------|
6 --------------------------|
  yo que haría?
 
 
  riff  (x2)
1 -------------------------|----------------------------|
2 -3--1--0-----------------|----------------------------|
3 ---------2--0---0---0--2-|--0-0-0-0--2--4--2--0-------|
4 --------------4---4------|-4-4-4-4---------------4--0-|
5 -------------------------|----------------------------|
6 -------------------------|----------------------------|



G                 G            
Juro que no vuelvo a hablar del tema
C            C°         
porque aunque no quiera todo terminó
G                   G
Cada quien mañana se dará la vuelta
C               C°          
hacia su destino sin decir adios

Em                     Am
Juro que no vuelves a escuchar mi voz
Em                     Am
no importa que estalle todo mi interior
Em                     Am
aunque yo no entienda ya esta situación
Em           C            D        G G7 1°
esta historia acaba porque nunca comenzó.

C              D              G
Te doy la espalda, empiezo a andar
C       D       G
pero no dejo de pensar
C           D            G 
prendo un recuerdo para evaporar tu amor
C         D               G
y más se inflama el corazón


riff


G                 G   
Juro que no vuelves a mirar mi cara
C                 C°         
mis manos hurgando por tu pantalón
G                 G   
No voy a causarte más de dos problemas
C            C°         
si es que alguna vez escuchas mi canción
Em                     Am
Juro que no vuelves a escuchar mi voz
Em                     Am
no importa que estalle todo mi interior
Em                     Am
aunque yo no entienda ya esta situación
Em           C            D        G G7 1°
esta historia acaba porque nunca comenzó.

C              D              G
Te doy la espalda, empiezo a andar
C       D       G
pero no dejo de pensar
C           D            G 
prendo un recuerdo para evaporar tu amor
C       D           G
y más se inflama el corazón

G                   G
Juro que no vuelvo a hablar del tema
C               C°
porque aunque no quiera todo terminó.



  
C°  0 3 2 0 3 0 
1°  se tokan las cuerdas 1 a la 3 al aire
		   
AcordesyTabs.com © 2008 Acordes y Tablaturas para guitarra. Tabs and Chords for guitar. Aviso Legal - Contacto
El uso de este sitio está sujeto a la aceptación de los términos y condiciones (28 usuarios online)