tablaturas, partituras y acordes para guitarra
Busca por banda/artista:
 
y/o título de la canción:
A B C D E F G H I J K L M N O P Q R S T U V W X Y Z 0 1 2 3 4 5 6 7 8 9 / Top 100 tabs
Categorías
Usuarios
usuario:
Darse de alta
password:
Artistas más visitados
Publicidad
TOP acordes y tablaturas de Zona 7


Estás en: Inicio > Letra Z > Acordes y tablaturas de Zona 7 > La amistad con el mundo
La amistad con el mundo
de Zona 7
Puntúa este acorde/tab:      
(0.4/5)
Reportar este acorde/tab
  Añadir a tus favoritos
  Imprimir
Esta rola  me gusta mucho  y es sencilla ok ahí les va  luego la subo para guitarra

 Tengo las notas delas trompetas si las quieres escríbanme ok 

Intro y verso
                                               2 beses 
E-5-5-5-5-5-5-/---------------------------------------/----------5-/
A-------------/--4-4-4-4-4-4-/-5-5-5-5-5-5-/-7-7-7-7-7-7-/7-5-4-2--/
D------------------------------------------------------------------/
G------------------------------------------------------------------/

E-5-5-5-5-5-5-/----------------------------------------------/
A------------------7-7-7-7-7-8-9-/-9-9-9-9-9-9-/-7-7-7-7-7-7-/
D------------------------------------------------------------/
G------------------------------------------------------------/

Coro el coro es lo mismo que el prinpisio ok


 La entrada el puente 

E--4-4-4--------/
A----------2--4--/
D----------------/
G----------------/

Puente
Se repite como 3 beses esos adornos que mete no los tengo pero tu 
échale algo por ejemplo   una escala penita tónica 
E----------------------9-/
A-5----5--7----7--9-----/
D----7-------8-----------/
G------------------------/
Fin
Saludos ha laura cecilias hádame de Monterrey  ok adios
		   
AcordesyTabs.com © 2008 Acordes y Tablaturas para guitarra. Tabs and Chords for guitar. Aviso Legal - Contacto
El uso de este sitio está sujeto a la aceptación de los términos y condiciones (34 usuarios online)