tablaturas, partituras y acordes para guitarra
Busca por banda/artista:
 
y/o título de la canción:
A B C D E F G H I J K L M N O P Q R S T U V W X Y Z 0 1 2 3 4 5 6 7 8 9 / Top 100 tabs
Categorías
Usuarios
usuario:
Darse de alta
password:
Artistas más visitados
Publicidad
TOP acordes y tablaturas de Def Leppard


Estás en: Inicio > Letra D > Acordes y tablaturas de Def Leppard > Pour Some Sugar On Me
Pour Some Sugar On Me
de Def Leppard
Puntúa este acorde/tab:      
(0.1/5)
Reportar este acorde/tab
  Añadir a tus favoritos
  Imprimir
Band: 
 
Tabbed by: ME a.k.a (ROXXY)

Standard Tuning 5 String Bass
(B, E, A, D, G)

This song can be played on a four string in drop D tuning.
I tabbed it using my five string while listening to the original recording.
Just listen to the song and you will be able to figure all of it out.


Intro and Bridge
G|----------------------------------------------|
D|----------------------------------------------|
A|----------------------------------------------|
E|----------------------------------------------|
B|-----2-2--------2-2--------2-2--------2-2-----|


Verse
         Think about it....   
G|--------------------------------------------------------------|
D|--------------------------------------------------------------|
A|-----------2-2-----------2-2-----------0-0-------0-2-2-2-2----|
E|----2-2-----------2-2-----------0-0-----------0---------------|
B|--------------------------------------------------------------|

Chorus
     Pour some....
G|---------------------------------|
D|---------------------------------|
A|------------0-0----2-2----2-2----|
E|----0-0--------------------------|
B|---------------------------------|
		   
AcordesyTabs.com © 2008 Acordes y Tablaturas para guitarra. Tabs and Chords for guitar. Aviso Legal - Contacto
El uso de este sitio está sujeto a la aceptación de los términos y condiciones (74 usuarios online)