tablaturas, partituras y acordes para guitarra
Busca por banda/artista:
 
y/o título de la canción:
A B C D E F G H I J K L M N O P Q R S T U V W X Y Z 0 1 2 3 4 5 6 7 8 9 / Top 100 tabs
Categorías
Usuarios
usuario:
Darse de alta
password:
Artistas más visitados
Publicidad
TOP acordes y tablaturas de Def Leppard


Estás en: Inicio > Letra D > Acordes y tablaturas de Def Leppard > Pour Some Sugar On Me
Pour Some Sugar On Me
de Def Leppard
Puntúa este acorde/tab:      
(0.5/5)
Reportar este acorde/tab
  Añadir a tus favoritos
  Imprimir

Artist: Def Leppard
Song: Pour Some Sugar On Me
Album: Hysteria
Tabbed By: sniperguy4u@yahoo.com
Standard Tuning



                        -Pour Some Sugar On Me-
                              DEF LEPPARD



Intro (Figure A):
----------------------------------------------------------
----------------------------------------------------------
----6-4---4--6vvvvv-4--4-6vvvv----6-4--4--6vvv-4--3vvvv---
--------6-------------------------------------------------
--4-----------------------------4-------------------------
----------------------------------------------------------

    V- fade in
----------------------------------------------------4-----
----------------------------------------------------4-----
----6-4---4--6vvvvv-4--4-6vvvv----6-4----4--4---6---4-----
--------6-----------------------------6--4--4---6---4-----
--4-----------------------------4-------------------------
----------------------------------------------------------



Verse (Figure B):
------------------------------
------------------------------
----6--6----6-6-----4/---6----
----6--6----6-6-----4/---6----
----4--4----4-4-----2/---4----
------------------------------
(Only play figure B last half of the verse repeatedly a few times)




Second verse, add this (Figure C):


--------------  Flicker volume switch while playing this backing part.
--------------  (Listen to recording for rythm of flickering.....)
------9-------  
------9-------
--------------
--------------



(Figure D):
(Add During End Of Second Verse, Listen To Recording For When To Start.)
---------------------------------------
---------------------------------------
---------------------------------------
-------6--6--6--6--6--6--6--6----------
-------6--6--6--6--6--6--6--6----------
-------4--4--4--4--4--4--4--4----------
---------------------------------------
(repeat alot of times real fast palm muting)




Pre-Chorus (Figure E):

----------------------------------------------------------------------
----------------------------------------------------------------------
--------6----4vvvvvvvv---------6----6vvvvvvvv---------4----2vvvvvvv---
---4----6----4vvvvvvvv----4----6----6vvvvvvvv----2----4----2vvvvvvv---
---4----4----2vvvvvvvv----4----4----4vvvvvvvv----2----2----0vvvvvvv---
---2----------------------2----------------------0--------------------

  
---------------------------
---------------------------
--------2----4vvvvvvv------
---2----2----4vvvvvvv------
---2----0----2vvvvvvv------
---2-----------------------



Chorus (Figure F):
---------------------------------
---------------------------------
-----------2-2-----4-4-----4-4---
---2-2-----2-2-----4-4-----4-4---
---2-2-----0-0-----2-2-----2-2---
---0-0---------------------------
(repeat 3 times)




End Of Chorus (Figure G):
-------------------
-------------------
---4/-6--6---------
---4/-6--6---------
---2/-4--4---------
-------------------




2nd Guitar Part During 2nd Chorus: (Figure H):
-0-0-0-0-0-0-0-0-0-0-0-0-0-0-0-0-0-0-0-0-0-0-0-0-0-0-0-0-0-0-0-0-0-0-0----
-5-5-5-5-5-5-5-5-5-5-5-5-5-5-5-5-5-5-5-5-5-5-5-5-5-5-5-5-5-5-5-5-5-5-5----
--------------------------------------------------------------------------
--------------------------------------------------------------------------
--------------------------------------------------------------------------
--------------------------------------------------------------------------


After Chorus There Are Harmonics 
And Feedback In Backround of Intro Riff
Reapeating............



Solo (Figure I):

 |-|----|-|-----fade in
----------------------------------------------------------------------------
----------------------------------------------------------------------------
--7------7---7-7-6-6-7-7-6-7-7-7-6-6-7-7-6-6-7-7-6-6-7-7-6-7-7-7-6-6-7-7-6--
--7------7------------------------------------------------------------------
----------------------------------------------------------------------------
----------------------------------------------------------------------------


---------------------------------------------------------------------------
----------------------------------------------------------------------------
----------------------------------------------------------------------------
--2-2-------2-2--2----------------7-7-6-6-7-7-6-7-7-7-6-6-7-7-6-6-7-9-7-6-7-
--2-2-------2-2--2-------7--5--6--------------------------------------------
--0-0-------0-0--0---0------------------------------------------------------




       |--------------Repeat When "take sugar" part starts
--------------------------------------------------------------
--------------------------------------------------------------
---6-7---7-6---6----------------------------------------------
-9-----9-----9---6-7-9---2--2---------------------------------
-------------------------2-----2--4--4--5---2--------5---7---
-------------------------0------------------0--0-0-0---0------




Solo At End Of Song (Figure J):

-0-0-0-0-12-12-12-12-0-12-------------------------
----------------------------10-12-14-12-10-12-14--
-9-9-9-9-9--9--9--9--9-9--------------------------
--------------------------------------------------
--------------------------------------------------
--------------------------------------------------


----------------------------------------------------------------------------
-19>(21)--19>(21)--19>(21)---17-19vvvvvv19vvvvv19vvv17--19--19>(21)--17vvvv-
----------------------------------------------------------------------------
----------------------------------------------------------------------------
----------------------------------------------------------------------------
----------------------------------------------------------------------------


------------------------------------------------19-------------------------
--17>(19)--17vvvv--17--19>(21)-19vvvvv---17-17------17--17-17-17-17-17-17--
---------------------------------------------------------------------------
---------------------------------------------------------------------------
---------------------------------------------------------------------------
---------------------------------------------------------------------------


--19>(21--19--19>(21)vvvvvv-19>(21)>19--16--19vvv19vvv19vv19vvv19vvv19--
------------------------------------------------------------------------
------------------------------------------------------------------------
------------------------------------------------------------------------
------------------------------------------------------------------------
------------------------------------------------------------------------


--------------------
--------------------
---------2-2---4-4--
--2-2----2-2---4-4--
--2-2----0-0---2-2--
--0-0---------------



     All the parts are here, but not neccesarily in order, just use
     your best judgement to figure out where each part goes and the
     timing of everything. If you have any comments or questions email
     me at:  sniperguy4u@yahoo.com............
         
                                *Good Luck*
		   
AcordesyTabs.com © 2008 Acordes y Tablaturas para guitarra. Tabs and Chords for guitar. Aviso Legal - Contacto
El uso de este sitio está sujeto a la aceptación de los términos y condiciones (35 usuarios online)