tablaturas, partituras y acordes para guitarra
Busca por banda/artista:
 
y/o título de la canción:
A B C D E F G H I J K L M N O P Q R S T U V W X Y Z 0 1 2 3 4 5 6 7 8 9 / Top 100 tabs
Categorías
Usuarios
usuario:
Darse de alta
password:
Artistas más visitados
Publicidad
TOP acordes y tablaturas de Def Leppard


Estás en: Inicio > Letra D > Acordes y tablaturas de Def Leppard > Rock Of Ages
Rock Of Ages
de Def Leppard
Puntúa este acorde/tab:      
(0.3/5)
Reportar este acorde/tab
  Añadir a tus favoritos
  Imprimir
#----------------------------------PLEASE NOTE---------------------------------#
#This file is the author's own work and represents their interpretation of the #
#song. You may only use this file for private study, scholarship, or research. #
#------------------------------------------------------------------------------#
  "Rock Of Ages"
  by Def Leppard





tabbed by the best guitarist ever!!
this is my version of rock of ages. this is all I know so far.
i'm asking anyone that knows anything more to 
please expand on what i already have. 

intro:                                
----------------------------------------------------------  <<< play 4x
----------------------------------------------------------
--9-9-9-9--7--------9-9-9-9--12-14-14---------------------
--9-9-9-9--7--9-----9-9-9-9--12-14-14---------------------
--7-7-7-7--5--9-----7-7-7-7--10-12-12---------------------
--------------7---------------------^---------------------
              ^ let ring            ^ let ring

The verses are backed by just bass.

Pre Chorus  part "What do you want"
----------------------------------------------------------
----------------------------------------------------------
--{9-9-7-7}----9-12-12-12-12-12-12-12-12------------------
--{9-9-7-7}----9-12-12-12-12-12-12-12-12------------------
--{7-7-5-5}----7-10-10-10-10-10-10-10-10------------------
----------------------------------------------------------
  {Repeat 4x} 

Chorus:   
----------------------------------------------------------
----------------------------------------------------------
------0--------------0------------------------------------
----------4---2----------4---2----------------------------
--3-3---3---3----3-3---3---3------------------------------
----------------------------------------------------------
  1 & 2 & 3 & 4  1 & 2 & 3 & 4 
 "Rock Of Ages   Rock of ages"

----------------------------------------------------------
----------------------------------------------------------
------0--------------0------------------------------------
----------4---2----------4---2----------------------------
--2-2---2---2----2-2---2---2------------------------------
----------------------------------------------------------
  1 & 2 & 3 & 4  1 & 2 & 3 & 4 
"Still rollin rock and rollin' "
		   
AcordesyTabs.com © 2008 Acordes y Tablaturas para guitarra. Tabs and Chords for guitar. Aviso Legal - Contacto
El uso de este sitio está sujeto a la aceptación de los términos y condiciones (21 usuarios online)