tablaturas, partituras y acordes para guitarra
Busca por banda/artista:
 
y/o título de la canción:
A B C D E F G H I J K L M N O P Q R S T U V W X Y Z 0 1 2 3 4 5 6 7 8 9 / Top 100 tabs
Categorías
Usuarios
usuario:
Darse de alta
password:
Artistas más visitados
Publicidad
TOP acordes y tablaturas de Def Leppard


Estás en: Inicio > Letra D > Acordes y tablaturas de Def Leppard > Tonight Acoustic
Tonight Acoustic
de Def Leppard
Puntúa este acorde/tab:      
(0.3/5)
Reportar este acorde/tab
  Añadir a tus favoritos
  Imprimir
Def Leppard - Tonight

Someone else has a version posted, but their version is in flat tuning
and some of the notes are still wrong. This is standard tuning, for the
acoustic version of the song. Sounds nice if you can play it right.
Have fun.

 riff 1
  
E |---0--------0----------0-------0------------------------------------------:|
B |-----1--------1------1-----------1---------0------0------1p0---3----3-5---:|
G |-------2--0-----0--0-----0--4------2-----2--------------------------------:|
D |---------------------------------------2--------0-------------------------:|
A |-0-----------------------------------0-----------------0-----2----3-----0-:|
E |----------------------------------------------3-----3---------------------:|

 riff 2 

E |-------0---0------------0---0---------:|
B |---------1-----1----------1-----1-----:|
G |-----2-------2--------2-------2-------:|
D |---0----------------0-----------------:|
A |-0----------------0-------------------:|
E |--------------------------------------:|

Intro: riff 1

riff 1
I don't wanna play the waiting game and drift away
leaving an illusion. 

riff 1
I don't wanna hide it's foolish pride
To close my eyes a touch away from wanting you

[riff 2]

riff 1
Don't try to look away when we're face to face
I see your eyes that animal emotion

riff 1
You don't have to stand, you turn the tramp
It's in those eyes it's gonna happen anyway

Chorus:
riff 1
Movin to the rythm of your heartbeat

[break riff to play chords]A       G
I'm more than willing, touching you will be

riff 1                              [break riff]
moving to the rythm of your heartbeat

A       G                                D
Ohh babe, when you get that rythem gonna move into your room

   A   G         D
Tonight, give me love with no disguise
Tonight, I see the fire in your eyes
       
        riff 1                                [break riff]
Tonight, so right this night could be dynamite

A        G          D                       
Wait and see, if it pleases you it pleases me

[riff 1]

riff 1
There's nothing I can say. It's no mystery
It's in your eyes, those eyes are where I won't have been.

riff 1
So give me heart and soul, I lose control
Can't stop my eyes from fallin into fantasy

[Chorus]

    A   G         D
Tonight, give me love with no diguise
Tonight, I see the fire in your eyes
Tonight, I wanna win the greatest prize

riff 1
Tonight, so right this night could be dynamite

A        G          D
Wait and see, if it pleases you it pleases me
		   
AcordesyTabs.com © 2008 Acordes y Tablaturas para guitarra. Tabs and Chords for guitar. Aviso Legal - Contacto
El uso de este sitio está sujeto a la aceptación de los términos y condiciones (36 usuarios online)