tablaturas, partituras y acordes para guitarra
Busca por banda/artista:
 
y/o título de la canción:
A B C D E F G H I J K L M N O P Q R S T U V W X Y Z 0 1 2 3 4 5 6 7 8 9 / Top 100 tabs
Categorías
Usuarios
usuario:
Darse de alta
password:
Artistas más visitados
Publicidad
TOP acordes y tablaturas de Queen


Estás en: Inicio > Letra Q > Acordes y tablaturas de Queen > Procession
Procession
de Queen
Puntúa este acorde/tab:      
(0.3/5)
Reportar este acorde/tab
  Añadir a tus favoritos
  Imprimir


                              QUEEN: PROCESSION
                                From QUEEN II.   
                               1974, Brian May 

    Channel 1                                                                 
E-|-3-5-6-6-|-3-5-6-5-6-5-3---3-------5---1---1---1---1---3-0-1-0-------------|
B-|-3-7-8-8-|-5-----6-6---6-5-3-------7---3-2-3---3-2-3---3-1-1---3---1-3-----|
G-|-3-7-7-7-|-5-----5-7---5---5-4-----7---2---2---3-2-3---4-0-2---5-4-2-0-----|
D-|---------|---------------------7-5-----------------------------5-3-2-0-----|
A-|---------|-----------------------------------------------------------------|
E-|---------|-----------------------------------------------------------------|
  |                                                                           |
  | Channel 2        fade in/fade out volume control                          |
E-|---------------------------------------------------------------------------|
B-|---------------------------------------------------------------------------|
G-|---------------------------------------------------------------------------|
D-|-----------------------------------0---------0-----------------------------|
A-|-------------------------------------0---------1-------2-3---------0-------|
D-|---------------------------------------0-------------------3---5-----5-----|

    Channel 2                                                                          
E-|-7-8-10-10-10----|-12-----13----15-15---|-12-14-15-15----------------------|
B-|-8-8-10-12-12----|-15-13--15----17-17---|-13-15-17-17----------------------|
G-|-7-9-11-12-12----|-12-----17-16-17-17---|-14-16-17-17----------------------|
D-|-----------------|----------------------|----------------------------------|
A-|-----------------|----------------------|----------------------------------|
E-|-----------------|----------------------|----------------------------------|
  |                                                                           |
  | Channel 1        fade in/fade out volume control                          |
E-|-----------|---------------------|-3------------------|-0------------------|
B-|-----------|-3-3-3-1-------------|-3-5-3-1------------|-3-1-1--------------|
G-|-----------|-2-4-0-0-------------|-4-5-4-2------------|-4-2-2--------------|
D-|-----------|-4-5-3-2-------------|-5-5-5-2------------|---2-2--------------|
A-|-----------|-5-5-5-3-------------|---3-2-0------------|---0-0--------------|
D-|-----------|---------------------|--------------------|-2------------------|
                                                                               
    Channel 2                                                                           
E-|-12-14-15-15-17-19-19-20-22-22---------------------------------------------|
B-|-13-15-17-17-19-20-20-22-24-22---------------------------------------------|
G-|-12-14-16-17-19-21-19-21-23-23---------------------------------------------|
D-|---------------------------------------------------------------------------|
A-|---------------------------------------------------------------------------|
E-|---------------------------------------------------------------------------|
  |                                                                           |
  |  Channel 1         fade in/fade out volume control                        |
E-|---------------------------------------------------------------------------|
B-|---------------------------------------------------------------------------|
G-|-------------------12-12-12-11---------------------------------------------|
D-|-------------------12-12-12-12---------------------------------------------|
A-|-0-----------------14-10-10-12---------------------------------------------|
D-|-----------2--------5--------0---------------------------------------------|

Transcribed by Pinter Denes
dpinter@eik.bme.hu
Channel 1 and 2 mean left and right stereo channels.



		   
AcordesyTabs.com © 2008 Acordes y Tablaturas para guitarra. Tabs and Chords for guitar. Aviso Legal - Contacto
El uso de este sitio está sujeto a la aceptación de los términos y condiciones (23 usuarios online)