tablaturas, partituras y acordes para guitarra
Busca por banda/artista:
 
y/o título de la canción:
A B C D E F G H I J K L M N O P Q R S T U V W X Y Z 0 1 2 3 4 5 6 7 8 9 / Top 100 tabs
Categorías
Usuarios
usuario:
Darse de alta
password:
Artistas más visitados
Publicidad
TOP acordes y tablaturas de Deftones


Estás en: Inicio > Letra D > Acordes y tablaturas de Deftones > Around The Fur
Around The Fur
de Deftones
Puntúa este acorde/tab:      
(0.4/5)
Reportar este acorde/tab
  Añadir a tus favoritos
  Imprimir
deftones
around the fur

once again, this tab is better than the others and is pretty close 
to 100% correct!!!!!!!!!!!!!!!!!!!!!!!!!!!!!!!!!!!!!!!!!!!!!!!

dropped d tuning

palm mute this riff

----------------------------------------------------------------------
----------------------------------------------------------------------
----------------------------------------------------------------------
-0-0-0-0----7-7-7-7-7-7-3-3-3-3-0-0-0-0----7-7-7-7-7-7-3-3-3-3-0-0-0-0
-0-0-0-0----7-7-7-7-7-7-3-3-3-3-0-0-0-0----7-7-7-7-7-7-3-3-3-3-0-0-0-0
-0-0-0-0----7-7-7-7-7-7-3-3-3-3-0-0-0-0----7-7-7-7-7-7-3-3-3-3-0-0-0-0

chords for chorus

0  3  4  11
0  3  4  11
0  3  4  11

outro

palm mute this riff


---------------------------
---------------------------
---------------------------
-0-0-0-0-0-0-0-0--10-10/6-6
-0-0-0-0-0-0-0-0--10-10/6-6
-0-0-0-0-0-0-0-0--10-10/6-6


--------------------
--------------------
--------------------
-4------------------
----6--4--5-------1-
--------------------







		   
AcordesyTabs.com © 2008 Acordes y Tablaturas para guitarra. Tabs and Chords for guitar. Aviso Legal - Contacto
El uso de este sitio está sujeto a la aceptación de los términos y condiciones (23 usuarios online)