tablaturas, partituras y acordes para guitarra
Busca por banda/artista:
 
y/o título de la canción:
A B C D E F G H I J K L M N O P Q R S T U V W X Y Z 0 1 2 3 4 5 6 7 8 9 / Top 100 tabs
Categorías
Usuarios
usuario:
Darse de alta
password:
Artistas más visitados
Publicidad
TOP acordes y tablaturas de Tierra Santa


Estás en: Inicio > Letra T > Acordes y tablaturas de Tierra Santa > La Caja De Pandora
La Caja De Pandora
de Tierra Santa
Puntúa este acorde/tab:      
(0.8/5)
Reportar este acorde/tab
  Añadir a tus favoritos
  Imprimir
Esta rola es para ti ALICA  solo porque si. te amo

esta parte va  primero un poco lento.

E------------------------------------------------------
B------------------------------------------------------
G-5/7-7-9-10---7-9-10-12--10-9-7-5-9-10-9-7-5----------
D------------------------------------------------------
A------------------------------------------------------
E------------------------------------------------------




E-----------------------------------------------------
B-----------------------------------------------------
G-7-7--9-10--7-9-10-12--10-9-7-5-7-9-10-9-7-5-7-------
D-----------------------------------------------------
A-----------------------------------------------------
E-----------------------------------------------------

esta parte que sigue va  rapida y es muy facil.
E-----------------------------------------------------
B-----------------------------------------------------
G-10-9-7-5-7-9-10-12-10-9-7-10-9-7-5-7-9-10-12-14-12--
D-----------------------------------------------------
A-----------------------------------------------------
E-----------------------------------------------------


E------------------------------------------------------
B------------------------------------------------------
G-10-9-7-5-9-10-12-10-9-7--57-9-10-12-10-12-10-9-7-5-7-
D------------------------------------------------------
A------------------------------------------------------
E------------------------------------------------------


E------------------------------------------------------
B------------------------------------------------------
G------------------------------------------------------
D------------5~~---------3~/5---------5~--------5~-----
A-3333333333-3~~33333333-1~/3-3333333-3~3333333-3~3333-
E------------------------------------------------------


E------------------------------------------------------
B------------------------------------------------------
G------------------------------------------------------
D-3~/5~-------5/7/3-------1/3/5/3/5/7/-5-------3/5/7/5-
A-1~/3~333333-3/5/1-33333-3/1/3/1/3/5/-3-33333-1/3/5/3-
E------------------------------------------------------


E-----------------------------------------------------
B-----------------------------------------------------
G-----------------------------------------------------
D----------5/3/5/7/5-------5-----5-----5-----3/5------
A-33333333-3/1/3/5/3--3333-3-333-3-333-3-333-1/3-333--
E


E-----------------------------------------------------
B-----------------------------------------------------
G-----------------------------------------------------
D-5-----5/5/5~-------3/5------------------------------
A-3-333-3/7/3~333333-1/3-33333------------------------
E-----------------------------------------------------

  ..SOLO..  un poquito corto  pero suena bien
E-----------------------------------------------------
B-----------------------------------------------------
G-7^-7^--7--9-10-12-10-7^-7^---7-9-10-12-10-14-12-10-9
D-----------------------------------------------------
A-----------------------------------------------------
E-----------------------------------------------------

E-----------------------------------------------------
B-------------------------/-13~~-15-15-15-17-18-21-18-
G-7-9-10-12-10-9--7^-7^-------------------------------
D-----------------------------------------------------
A-----------------------------------------------------
E-----------------------------------------------------

E-----------------------------------------------------
B-15^-15---15-17-18-21-18-15^-15-20-18-17-18-13-15-17-
G-----------------------------------------------------
D-----------------------------------------------------
A-----------------------------------------------------
D-----------------------------------------------------

E-----------------------------------------------------
B-18-17-15-13-15--------------------------------------
G-----------------------------------------------------
D-----------------------------------------------------
A-----------------------------------------------------
E-----------------------------------------------------

  cuando el solo acaba  siguen las mismas notas del
  principio, ok  talvez  falten unos  5 numeros del 
  solo al final pero esta todo, ok  sugerencias a mi
  e-mail  ok  buena onda......

ALICIA  .TE AMO  .   CON TODO.    ....HENRY.....
		   
AcordesyTabs.com © 2008 Acordes y Tablaturas para guitarra. Tabs and Chords for guitar. Aviso Legal - Contacto
El uso de este sitio está sujeto a la aceptación de los términos y condiciones (18 usuarios online)