tablaturas, partituras y acordes para guitarra
Busca por banda/artista:
 
y/o título de la canción:
A B C D E F G H I J K L M N O P Q R S T U V W X Y Z 0 1 2 3 4 5 6 7 8 9 / Top 100 tabs
Categorías
Usuarios
usuario:
Darse de alta
password:
Artistas más visitados
Publicidad
TOP acordes y tablaturas de Deftones


Elite
de Deftones
Puntúa este acorde/tab:      
(0.2/5)
Reportar este acorde/tab
  Añadir a tus favoritos
  Imprimir
Ok yet another Deftones song this one is Elite

TUNING: down one full step and drop d (C-G-C-F-A-D)


     () = palm mute

     RIFF 1:

    |-------------------------------------------------------------|
    |-------------------------------------------------------------|
    |-------------------------------------------------------------|
    |-0-2-0-2-3-2-0-2-0-2-0-2-3-2-0-2-0-2-0-2-3-2-0-2-0-3-----0-8-|
    |-0-2-0-2-3-2-0-2-0-2-0-2-3-2-0-2-0-2-0-2-3-2-0-2-0-3-----0-8-|
    |-0-2-0-2-3-2-0-2-0-2-0-2-3-2-0-2-0-2-0-2-3-2-0-2-0-3-----0-8-|

     RIFF 2:

    |---------0-|
    |---------0-|
    |---------0-|
    |-0-2-0-2-3-|
    |-0-2-0-2-3-|
    |-0-2-0-2-3-|

     RIFF 3:

    |-------------------------------------------------------------|
    |-------------------------------------------------------------|
    |-------------------------------------------------------------|
    |-------------------------------------------------------------|
    |---------3---------------3---------------3-------------------|
    |-0-2-0-2---2-0-2-0-2-0-2---2-0-2-0-2-0-2---2-0-2-0-3-----0-8-|

     RIFF 4:

    |---------------------------------|
    |---------------------------------|
    |-7-7-7-7-7-7-7-7-7-7-7-7-7-7-7-7-|
    |-5-5-5-5-5-5-5-5-5-5-5-5-5-5-5-5-|
    |-5-5-5-5-5-5-5-5-5-5-5-5-5-5-5-5-|
    |-5-5-5-5-5-5-5-5-5-5-5-5-5-5-5-5-|

     RIFF 5:

    |-------------------------------------------------------------------|
    |-------------------------------------------------------------------|
    |-------------------------------------------------------------------|
    |-------------------------------------------------------------------|
    |---------3---------------3---------------3-------------------------|
    |-0-2-0-2---2-0-2-0-2-0-2---2-0-2-0-2-0-2---2-0-2-0-3-----0-8-----2-|

     RIFF 6:

    |-------------------|
    |-------------------|
    |-------------------|
    |-------------------|
    |-(--------3------)-|
    |-(0-2-0-2---2-0-2)-|

     RIFF 7:

    |---|
    |---|
    |---|
    |---|
    |---|
    |-2-|

     RIFF 8:

    |----------------------------------------------------------|
    |----------------------------------------------------------|
    |----------------------------------------------------------|
    |----------------------------------------------------------|
    |---------3---------------3---------------3----------------|
    |-0-2-0-2---2-0-2-0-2-0-2---2-0-2-0-2-0-2---2-0-2---\\\-|

     RIFF 9:

    |--------------------------------------------------------|
    |--------------------------------------------------------|
    |--------------------------------------------------------|
    |--------------------------------------------------x---x-|
    |---------3---------------3---------------3--------x---x-|
    |-0-2-0-2---2-0-2-0-2-0-2---2-0-2-0-2-0-2---2-0-2--x---x-|






		   
AcordesyTabs.com © 2008 Acordes y Tablaturas para guitarra. Tabs and Chords for guitar. Aviso Legal - Contacto
El uso de este sitio está sujeto a la aceptación de los términos y condiciones (24 usuarios online)