tablaturas, partituras y acordes para guitarra
Busca por banda/artista:
 
y/o título de la canción:
A B C D E F G H I J K L M N O P Q R S T U V W X Y Z 0 1 2 3 4 5 6 7 8 9 / Top 100 tabs
Categorías
Usuarios
usuario:
Darse de alta
password:
Artistas más visitados
Publicidad
TOP acordes y tablaturas de Deftones


Elite
de Deftones
Puntúa este acorde/tab:      
(0.6/5)
Reportar este acorde/tab
  Añadir a tus favoritos
  Imprimir
Artist: Deftones
Album: White Pony
Song: Elite
Tabbed By: Aaron Patey (El_Punkay@hotmail.com)
Tuning: CGCFAD 

Intro
D------------------------------------------------------
A------------------------------------------------------
F------------------------------------------------------
C-0-2-0-2-3-2-0-2----------------0--3-3----0--8-8-
A-0-2-0-2-3-2-0-2-----/--------/-0--3-3----0--8-8-     
C-0-2-0-2-3-2-0-2----/--  X4--/--0--3-3----0--8-8-

Riff
D------------------------------------------------------
A----------0--0-----------0--0-----------------------
F----------0--0-----------0--0------------------------
C-0-2-0-2--0--0--0-2-0-2--0--0--------------------------
A-0-2-0-2--------0-2-0-2---------------------------------
C-0-2-0-2--------0-2-0-2--------------------------------

Riff  2
D-----------------------------------------------------
A--------------------0--0----------0--0--------
F--77777777----------0--0----------0--0--------
C--55555555-0-2-0-2--0--0-0-2-0-2--0--0--------
A--55555555-0-2-0-2-------0-2-0-2----------------
C--55555555-0-2-0-2-------0-2-0-2----------------

Verse (Palm Mute All)
D---------------------------------------------------
A---------------------------------------------------
F-----------------------------------------------------
C-----------------------------------------------------
G----------3----------/------/-------------------------
C-0-2-0-2---2-0-2--/--X4-/-0--3-3---0--8-8--------

Figure Out Where They Go...


















		   
AcordesyTabs.com © 2008 Acordes y Tablaturas para guitarra. Tabs and Chords for guitar. Aviso Legal - Contacto
El uso de este sitio está sujeto a la aceptación de los términos y condiciones (37 usuarios online)