tablaturas, partituras y acordes para guitarra
Busca por banda/artista:
 
y/o título de la canción:
A B C D E F G H I J K L M N O P Q R S T U V W X Y Z 0 1 2 3 4 5 6 7 8 9 / Top 100 tabs
Categorías
Usuarios
usuario:
Darse de alta
password:
Artistas más visitados
Publicidad
TOP acordes y tablaturas de Rata Blanca


Estás en: Inicio > Letra R > Acordes y tablaturas de Rata Blanca > La cancion del guerrero
La cancion del guerrero
de Rata Blanca
Puntúa este acorde/tab:      
(0.8/5)
Reportar este acorde/tab
  Añadir a tus favoritos
  Imprimir
INTRO:
   F#m                             A B
e|-------------------------------------|
B|-------------------------------------| |
G|-----4-2-----2-4-2---------4-2---2-4-| |
D|-4-4-4-2-4-4-2-4-2-4-2-4-4-4-2-4-2-4-| |
A|-4-4-----4-4-------4-2-4-4-----4-----| |
E|-------------------------------------| |
   ^ ^       ^             ^             |
P.M..................................|  |
                                         |
   F#m                             A E   > Repetir
e|-------------------------------------| | 3 veces
B|-------------------------------------| |
G|-----4-2-----2-4-2---------4-2---2---| |
D|-4-4-4-2-4-4-2-4-2-4-2-4-4-4-2-4-2-2-| |
A|-4-4-----4-4-------4-2-4-4-----4---2-| |
E|-------------------------------------| |
   ^ ^       ^             ^             |
P.M...................................|  /

                                          
F#m                           E F#  E F#                        D  A E   E4 E4 E
Todos me reprochan lo que hice          Pero nadie dice una verdad aquí.
F#m                           E F#   E F#                           D* A* E  (d c# b a g# f#)
Piensan que la vida es eterna            creen tenerlo todo pero no es así...

----------------------------------------------------------------------------------
   punteo sobre D*        punteo sobre A*        E       ( d c# b  a g# f# )
   ---------------       ----------------     -------     ----------------
   ---------------       ----------------     -------     ----------------
   ---------------       ----------------     -------     ----------------
   -------4--7---        ----------------     -------     ----------------
   ----5----------       --------4--7----     ---2---     --5-4-2---------
   ---------------       -----5----------     ---0---     ---------5-4-2--
   PM  .  .  .           PM   .  .  .                  PM   . . .  . . .
-----------------------------------------------------------------------------------

Db              F#m E               A
Y hace falta, valor para poder continuar
E             D       Db
Cargando este peso en soledad.          (Repite INTRO)

F#m                           E F#   E F#                           D  A E   E4 E4 E
Mundo ciego necio hombre tonto           Cuando abras los ojos muy tarde será.
F#m                         E F#   E F#                             D* A* E   (d c# b a g# f#)
Estoy esperando la revancha             no podrán vencerme soy la realidad...

Db           F#m E               A
La batalla será digna como la verdad
E             D               Db
He luchado siempre hasta el final.    F#m - G#m - A 

Riff
e|------------------------------------------------------
b|------------------------------------------------------
g|------------------------------------------------------
D|-----------------------------------------------4------
A|-----------2---2-4-5-2------2-3-4----------0-2---0----
E|-2-4-5-4-5---5---------5-3-------1-4-2---4--------4-2-

e|----------------------------------------------------
b|----------------------------------------------------
g|----------------------------------------------------
D|----------------------------------------------------
A|-----------2---2-4-5-2-----0-1-2-2-3-4~-4-2-2-------
E|-2-4-5-4-5---5---------5-3-----------------5--5-4-2-

e|------------------------------------------------------
b|------------------------------------------------------
g|------------------------------------------------------
D|-----------------------------------------------4------
A|-----------2---2-4-5-2------2-3-4----------0-2---0----
E|-2-4-5-4-5---5---------5-3-------1-4-2---4--------4-2-

e|----------------------------------------|
b|----------------------------------------|
g|----------------------------------------|
D|----------------------------------------|
A|-----------2---2-4-5-2-----0-1-2-2-3-4~-|
E|-2-4-5-4-5---5---------5-3--------------|

 (sobre Riff)
D          Db       F#m   F#m - G#m - A
Como el trueno regresó,
D       B              Db   F#m   F#m - G#m - A
Vieja espada brilla al sol.
D           Db          F#m   F#m - G#m - A
De otros tiempos va a venir,
D      B            Db
Con su magia a combatir.


SOLO: 
e|-4^1---1---7^4---4---10^7---10---13(14)~---14-16-16(17)16-14h16p14-------------
B|-----2---------6----------9-------------/14------------------------17-15-14~---
G|-------------------------------------------------------------------------------
D|-------------------------------------------------------------------------------
A|-------------------------------------------------------------------------------
E|-------------------------------------------------------------------------------

e|-----------------------------------------------------------------------------------------------------
B|-----------------------------------------------------------------------------------------------------
G|-/11-13-14-14(16)14-13--14-13h14p13-11-13-11-10h11h10-13-11-10------/10~-11-10h11p10-----------------
D|--------------------------------------------------------------11-12----------~------12-11-9-11h12p11-
A|-----------------------------------------------------------------------------------------------------
E|-----------------------------------------------------------------------------------------------------

e|--------------------------------------------------------------16-15-15-16---------------
B|-----------------------------------------------19----------/19-----------19-19(21)19-18-
G|--------------------/11p10h11-/14--14p13h14-/18----18p17h18-----------------------------
D|-9--------------------------------------------------------------------------------------
A|--12-11-8-11-8-9------------------------------------------------------------------------
E|----------------------------------------------------------------------------------------
PM . .  . .  . . .
                          Db                                      ... F#m
e|-------------------------------------------------------------------------------------------
B|-14-15-18-15h18p15-14--14-15-17-15-14------------------------------------------------------
G|-------------------------------------16-14-13----------------------------------------------
D|---------------------------------------------16-15-12-11------------ punteo veloz en Db ---
A|--------------------------------------------------------14-12-11---- con final en F#m   ---
E|------------------------------------------------------- (algo así y sigue...)--------------

/ con Chorus:
| e|-----------------------------------------------------------------------------------------
| B|-----------------------------------------------------------------------------------------
| G|-13-13h14-/16-16-14--16-16h18-18h19-18--18-18-18h19-19h21-19-21-19-18-16--16h18-18h19-18-
| D|-----------------------------------------------------------------------------------------
| A|-----------------------------------------------------------------------------------------
| E|-----------------------------------------------------------------------------------------
|
| e|-------------------------------------------------------------------
| B|---------------------------------------------------------------/15-
| G|-19-18-16-14--14h16-16h18-16-18-16-14-13--13h14-14h16-14-/18-16----
| D|-------------------------------------------------------------------
| A|-------------------------------------------------------------------
| E|-------------------------------------------------------------------


e|--------------------------------------------------------------------------------
B|-14-15-17--14-15-17--14-15-17--14-15-17--14-15-17--14-15-17--14-15-17-=14-15-17-
G|--------------------------------------------------------------------------------
D|--------------------------------------------------------------------------------
A|--------------------------------------------------------------------------------
E|--------------------------------------------------------------------------------

e|--------------------------------------------------------------------------------
B|-12-14-15--12-14-15--12-14-15--12-14-15--12-14-15--12-14-15--12-14-15--12-14-15-
G|--------------------------------------------------------------------------------
D|--------------------------------------------------------------------------------
A|--------------------------------------------------------------------------------(algo así, pero con más
E|-------------------------------------------------------------------------------- notas en el medio)

e|--------------------------------------------------------------------------------
B|-10-12-14--10-12-14--10-12-14--10-12-14--10-12-14--10-12-14--10-12-14--10-12-14-
G|--------------------------------------------------------------------------------
D|--------------------------------------------------------------------------------
A|--------------------------------------------------------------------------------
E|--------------------------------------------------------------------------------

e|------------------------------------------------------------------------
B|-9-10-12--9-10-12--9-10-12--9-10-12--9-10-12--9-10-12--9-10-12--9-10-12-
G|------------------------------------------------------------------------
D|------------------------------------------------------------------------
A|------------------------------------------------------------------------
E|------------------------------------------------------------------------
                                                                                              
e|-10-9-----------------------9-10-9------|-12-10-9-------------9---9-10-12-10-9---           |
B|-----12-10-9---9-10-12-10-12------12-10-|--------12-10-9-10-12--12------------12-             
G|------------11--------------------------|----------------------------------------        Muy 
D|----------------------------------------|----------------------------------------      Rápido
A|----------------------------------------|----------------------------------------             
E|----------------------------------------|----------------------------------------           |
                                                                                              |
e|-14-12-10--------------10---10-12-14-12-10---|-16-14-12--------------12---12-14-16-14-12--- |
B|---------14-12-10-12-14---14--------------14-|---------15-14-12-14-15---15--------------15- |
G|---------------------------------------------|--------------------------------------------- |
D|---------------------------------------------|--------------------------------------------- |
A|---------------------------------------------|--------------------------------------------- |
E|---------------------------------------------|--------------------------------------------- |
                                                            F#m    F#m                        /
e|----------------------------------------------------------14-----14------
B|----------------------------------------------------------17(19)-17(19)~-
G|-/14-13-11-13-11h13p11h13p11h13o11h13p11h13p11-10-8-10-------------------
D|-------------------------------------------------------------------------
A|-------------------------------------------------------------------------
E|-------------------------------------------------------------------------

e|----------------------------------------------------
B|----------------------------------------------------
G|----------------------------------------------------
D|----------------------------------------------------
A|-4--5-4-------4--5-4-------4--5-4-------4--5-4------
E|-2~-----5-4---2~-----5-4---2~-----5-4---2~-----5-4--


F#m                         E F#   E F#                       D  A E   E4E4E
Todos me decían no se puede           estaba muy solo en una tempestad
F#m                             E F#   E F#                         D*  A*  E  (d c# b a g# f#)
sumergido en lodo todo el tiempo            pude ver sus ojos pude ver el mal...

Db             F#m  E              A
Ahora puedo gritar, no lo quiero callar
E             D               Db
He luchado siempre hasta el final.   (Repite INTRO hasta perderse)

luchar, hasta el final...  hasta el final luchando hasta el final    siempre hasta el final...
		   
AcordesyTabs.com © 2008 Acordes y Tablaturas para guitarra. Tabs and Chords for guitar. Aviso Legal - Contacto
El uso de este sitio está sujeto a la aceptación de los términos y condiciones (21 usuarios online)