tablaturas, partituras y acordes para guitarra
Busca por banda/artista:
 
y/o título de la canción:
A B C D E F G H I J K L M N O P Q R S T U V W X Y Z 0 1 2 3 4 5 6 7 8 9 / Top 100 tabs
Categorías
Usuarios
usuario:
Darse de alta
password:
Artistas más visitados
Publicidad
TOP acordes y tablaturas de Deftones


Hexagram
de Deftones
Puntúa este acorde/tab:      
(0.1/5)
Reportar este acorde/tab
  Añadir a tus favoritos
  Imprimir
Tuning ADGCFAD


Intro (clean or slightly distorted)
D|-------------------------------------------
A|-------------------------------------------
F|-8-8-8-8-8-8-------------------------------
C|-8-8-8-8-8-8---------5-5-5-5-5-5-5-5-5-5-5-
G|-6-6-6-6-6-6--3-3-3--5-5-5-5-5-5-5-5-5-5-5-
D|--------------3-3-3--3-3-3-3-3-3-3-3-3-3-3-
A|--------------1-1-1------------------------

D|-------------------------------------------------
A|-------------------------------------------------
F|-8-8-8-8-8-8-------------------------------------
C|-8-8-8-8-8-8---------5-5-5-5/6-6-6-6-6-6-6-6-6-6-
G|-6-6-6-6-6-6--3-3-3--5-5-5-5/6-6-6-6-6-6-6-6-6-6-
D|--------------3-3-3--3-3-3-3/4-4-4-4-4-4-4-4-4-4-
A|--------------1-1-1------------------------------


Verse ( HEAVY DISTORTION!!!!! m/ )
D|-------------------------------------------
A|-------------------------------------------
F|-8-8-8-8-8-8-------------------------------
C|-8-8-8-8-8-8---------5-5-5-5-5-5-5-5-5-5-5-
G|-6-6-6-6-6-6--3-3-3--5-5-5-5-5-5-5-5-5-5-5-
D|--------------3-3-3--3-3-3-3-3-3-3-3-3-3-3-
A|--------------1-1-1------------------------

D|-------------------------------------------------
A|-------------------------------------------------
F|-8-8-8-8-8-8-------------------------------------
C|-8-8-8-8-8-8---------5-5-5-5/6-6-6-6-6-6-6-6-6-6-
G|-6-6-6-6-6-6--3-3-3--5-5-5-5/6-6-6-6-6-6-6-6-6-6-
D|--------------3-3-3--3-3-3-3/4-4-4-4-4-4-4-4-4-4-
A|--------------1-1-1------------------------------

D|-------------------------------------------
A|-------------------------------------------
F|-8-8-8-8-8-8-------------------------------
C|-8-8-8-8-8-8---------5-5-5-5-5-5-5-5-5-5-5-
G|-6-6-6-6-6-6--3-3-3--5-5-5-5-5-5-5-5-5-5-5-
D|--------------3-3-3--3-3-3-3-3-3-3-3-3-3-3-
A|--------------1-1-1------------------------

D|---------------------------------------------------------------------|
A|---------------------------------------------------------------------|
F|-8-8-8-8-8-8---------------------------------------------------------|
C|-8-8-8-8-8-8---------5-5-5-5/6-6-6-6-6-6-6-6-6-6-6-6-6-6-6-6-6-6-6-6-|
G|-6-6-6-6-6-6--3-3-3--5-5-5-5/6-6-6-6-6-6-6-6-6-6-6-6-6-6-6-6-6-6-6-6-|
D|--------------3-3-3--3-3-3-3/4-4-4-4-4-4-4-4-4-4-4-4-4-4-4-4-4-4-4-4-|
A|--------------1-1-1--------------------------------------------------|


Chorus                       Fill 1    Fill 2     Fill 3
D|--------------------------|---------|----------|---------|
A|--------------------------|---------|----------|---------|
F|--------------------------|---------|-------0--|---------|
C|--------------------------|-------5-|-------0--|---------|
G|--------------------------|-9-8-4-5-|-6-6--10--|-9-8-4-6-|
D|3---3--3---3----3---3---3-|-9-8-4-3-|-6-6--10--|-9-8-4-6-|
A|1-0-1--1-0-1--0-1-0-1-0-1-|-7-6-2---|-4-4---8--|-7-6-2-4-|
		   
AcordesyTabs.com © 2008 Acordes y Tablaturas para guitarra. Tabs and Chords for guitar. Aviso Legal - Contacto
El uso de este sitio está sujeto a la aceptación de los términos y condiciones (31 usuarios online)