tablaturas, partituras y acordes para guitarra
Busca por banda/artista:
 
y/o título de la canción:
A B C D E F G H I J K L M N O P Q R S T U V W X Y Z 0 1 2 3 4 5 6 7 8 9 / Top 100 tabs
Categorías
Usuarios
usuario:
Darse de alta
password:
Artistas más visitados
Publicidad
TOP acordes y tablaturas de Deftones


Estás en: Inicio > Letra D > Acordes y tablaturas de Deftones > Knife Prty
Knife Prty
de Deftones
Puntúa este acorde/tab:      
(0.5/5)
Reportar este acorde/tab
  Añadir a tus favoritos
  Imprimir
Everyone know Coney is the king!!

DEFTONES TAB FOR KNIFE PRTY
* Drop E to D & tune all strings down half a step*
Intro-
 
|-------------------------------------------------------------------------------
|-------------------------------------------------------------------------------
|---4--4--4--4--4--4--4--4-/-8--8--8--8--8--8--8--8--8---9--9---8--8--8----|
|---2--2--2--2--2--2--2--2-/-6--6--6--6--6--6--6--6--6---6--6---6--6--6----|
|---2--2--2--2--2--2--2--2-/-6--6--6--6--6--6--6--6--6---6--6---6--6--6----|
|-------------------------------------------------------------------------------
 
Verse-

|-------------------------------------------------------------------------------
|-------------------------------------------------------------------------------
|-------------------------------------------------------------------------------
|---4--4--4--4--4--4--4--/-8--8--8--8--8--8--8--8--9--9--9--8--8--8----|
|---2--2--2--2--2--2--2--/-6--6--6--6--6--6--6--6--6--6--6--6--6--6----|
|---2--2--2--2--2--2--2--/-6--6--6--6--6--6--6--6--6--6--6--6--6--6----|
 
Chorus-

|-----------------------------------------------------------------|
|-----------------------------------------------------------------|
|--------------------------9--9--9--/--8--8--8--8------------|
|---7--7--7--7--7--7---0--0--0--/--0--0--0--0-----------|
|---7--7--7--7--7--7---7--7--7--/--6--6--6--6-----------|
|---7--7--7--7--7--7-----------------------------------------|
 
Squealing Bit 
 
|-------------------|
|-------------------|
|--------------8---|
|---8---------0---|
|---6---------6---|
|---6---------0---|
 
 
		   
AcordesyTabs.com © 2008 Acordes y Tablaturas para guitarra. Tabs and Chords for guitar. Aviso Legal - Contacto
El uso de este sitio está sujeto a la aceptación de los términos y condiciones (34 usuarios online)