tablaturas, partituras y acordes para guitarra
Busca por banda/artista:
 
y/o título de la canción:
A B C D E F G H I J K L M N O P Q R S T U V W X Y Z 0 1 2 3 4 5 6 7 8 9 / Top 100 tabs
Categorías
Usuarios
usuario:
Darse de alta
password:
Artistas más visitados
Publicidad
TOP acordes y tablaturas de Pastilla


La Carpa
de Pastilla
Puntúa este acorde/tab:      
(0.5/5)
Reportar este acorde/tab
  Añadir a tus favoritos
  Imprimir

tab por: el(Zerch)

Es una cancion muy sencilla pero buena, es mi primer tablatura pero 
estoy seguro de que es correcta, checala. Un saludo al 
porro y el conejo.



Esta parte es el intro y se toca hasta que comienza la voz.

Intro

G------------------|----------------------|-----------------------|
D------------------|----------------------|-----------------------|
A-------------15---|-----------15-17-15---|--------------15-------|
E--13-13---13------|-13-13--13------------|-13-13-----13----------|

G--------------------------|
D-------------15-17-15-----|
A--------------------------|  X2
E--13-13---13--------------|



Despues del intro  comienza la voz y va esta pequeña variacion.

Riff 2

G------------------|----------------------|
D------------------|----------------------|      X2
A-------------15---|-----------15-17-15---|
E--13-13---13------|-13-13--13------------|





Riff 3


.........yo quiero ser.............el domador

G:------------------|-----------------|-----------------|-----------------
D:------------------|-----------------|-----------------|-----------------
A:--3-3-3-3-3-3-3-3-|-3-3-3-3-3-3-3-3-|-1-1-1-1-1-1-1-1-|-1-1-1-1-1-1-1-1-
E:------------------|-----------------|-----------------|-----------------



Se repite el Riff 2


Riff 3


Deapues del Riff 3 inmediatamente sigue este cambio

... Si tu quieres jugar conmigo...

G:------------------|-----------------|-----------------|-----------------
D:------------------|-----------------|-----------------|-----------------
A:--5-5-5-5-5-5-5-5-|-5-5-5-5-5-5-5-5-|-3-3-3-3-3-3-3-3-|-3-3-3-3-3-3-3-3-
E:------------------|-----------------|-----------------|-----------------

...vamos a jugar

G:------------------|-----------------|-----------------|-----------------
D:------------------|-----------------|-----------------|-----------------
A:--1-1-1-1-1-1-1-1-|-1-1-1-1-1-1-1-1-|-5-5-5-5-5-5-5-5-|-5-5-5-5-5-5-5-5-
E:------------------|-----------------|-----------------|-----------------



Le sigue un corte con un ritmo medio punk


G:------------------|-----------------|-----------------|-----------------
D:---3-3-3-3-3-3-3--|-----------------|-----------------|-----------------
A:------------------|-3-3-3-3-3-3-3-3-|-----------------|-3-3-3-3-3-3-3-3-  
E:------------------|-----------------|-5-5-5-5-5-5-5-5-|-----------------


Esas son todas las partes de la cancion solo pon atencion y aprendete el 
orden de cada parte.
		   
AcordesyTabs.com © 2008 Acordes y Tablaturas para guitarra. Tabs and Chords for guitar. Aviso Legal - Contacto
El uso de este sitio está sujeto a la aceptación de los términos y condiciones (38 usuarios online)