tablaturas, partituras y acordes para guitarra
Busca por banda/artista:
 
y/o título de la canción:
A B C D E F G H I J K L M N O P Q R S T U V W X Y Z 0 1 2 3 4 5 6 7 8 9 / Top 100 tabs
Categorías
Usuarios
usuario:
Darse de alta
password:
Artistas más visitados
Publicidad
TOP acordes y tablaturas de Pastilla


La Carpa
de Pastilla
Puntúa este acorde/tab:      
(0.5/5)
Reportar este acorde/tab
  Añadir a tus favoritos
  Imprimir
  Acordes:
===============================================
Fa              x x x 5 6 5
Do5             x 3 5 5 x x
Sib5            x 1 3 3 x x
Re5             x 5 7 7 x x
Fa5             1 3 3 x x x
La5             5 7 7 x x x
Sol5            3 5 5 x x x
===============================================

INTRO:

Fa
|----------------|------------0-1-|
|--1---1---1---1-|--1---1-1-3-----|
|----2-------2---|----2-----------|   ( x3 )
|3-------3-------|3---------------|   
|----------------|----------------|
|----------------|----------------|

Fa
|----------------|--------6-6-6-5-|
|--1---1---1---1-|--1---1-6-6-6-6-|
|----2-------2---|----2---5-5-5-5-|
|3-------3-------|3---------------|
|----------------|----------------|
|----------------|----------------|

Fa
|--5---5---5---5-|--5---5-6-6-6-5-|
|--6---6---6---6-|--6---6-6-6-6-6-|
|--5---5---5---5-|--5---5-5-5-5-6-|   ( x4 )
|----------------|----------------|
|----------------|----------------|
|----------------|----------------|

Fa
Vamos a jugar a la carpa
Vamos a jugar a la carpa

Do5                  Sib5
Yo quiero ser el domador

Fa
Vamos a jugar a la carpa
Vamos a jugar a la carpa

Do5                             Sib5
Xochitl quiere ser la mujer con barba

   Re5
Si tu quieres jugar conmigo
   Do5
Ven hacia mi
          Sib5         Do5
Vamos a jugar a la carpa

           Fa5  Do5  La5  Do5 ( x4 )
A la carpa


|----------------|--------6-6-6-5-|
|----------------|--------6-6-6-6-|
|----------------|--------5-5-5-5-|
|3----pausa...---|----------------|
|3---------------|----------------|
|1---------------|----------------|

Fa
|--5---5---5---5-|--5---5-6-6-6-5-|
|--6---6---6---6-|--6---6-6-6-6-6-|
|--5---5---5---5-|--5---5-5-5-5-6-|   ( x4 )
|----------------|----------------|
|----------------|----------------|
|----------------|----------------|

Fa
Vamos a jugar a la carpa
Vamos a jugar a la carpa

Do5                  Sib5
Yo quiero ser el domador

Fa
Vamos a jugar a la carpa
Vamos a jugar a la carpa

Do5                             Sib5
Xochitl quiere ser la mujer con barba

   Re5
Si tu quieres jugar conmigo
   Do5
Ven hacia mi
          Sib5         Do5
Vamos a jugar a la carpa

   Re5
Si tu quieres jugar conmigo
   Do5
Ven hacia mi
          Sib5         Do5
Vamos a jugar a la carpa

           Fa5  Do5  La5  Do5 ( x6 )
A la carpa

 Fa5     Do5      La5     Do5      Fa5     Do5      La5     Do5
|----------------|--------6-5-3-5-|----------------|----------3---5-|
|6-------5-------|3---------------|6-------5-------|3-------5---5---|
|----------------|----------------|----------------|----------------|
|----------------|----------------|----------------|----------------|
|----------------|----------------|----------------|----------------|
|----------------|----------------|----------------|----------------|
..( x2 )

 (Notas fantasma)
|--XX------XX---|
|--XX------XX---|
|--XX------XX---| ( x4 )
|---------------|
|---------------|
|---------------|

Final:

Sib5  - -  Do5  - -  Sol
		   
AcordesyTabs.com © 2008 Acordes y Tablaturas para guitarra. Tabs and Chords for guitar. Aviso Legal - Contacto
El uso de este sitio está sujeto a la aceptación de los términos y condiciones (27 usuarios online)