tablaturas, partituras y acordes para guitarra
Busca por banda/artista:
 
y/o título de la canción:
A B C D E F G H I J K L M N O P Q R S T U V W X Y Z 0 1 2 3 4 5 6 7 8 9 / Top 100 tabs
Categorías
Usuarios
usuario:
Darse de alta
password:
Artistas más visitados
Publicidad
TOP acordes y tablaturas de Deftones


Minerva
de Deftones
Puntúa este acorde/tab:      
(0.4/5)
Reportar este acorde/tab
  Añadir a tus favoritos
  Imprimir
Minerva
Deftones
Deftones (self titled)
Tunings (Low to High) C# G# C# F# A# D#

Follow Song For timing.


Intro:  Clean
D#|-------------0---0---0---0---0---0---0---0---0--------------------------|
A#|------------13--13--13--13--13--13--13--13--13-----------13----------13-|
F#|---14---14--14--14--14--14--14--14--14--14--14--14-14-14-14-14-14-14-14-|
C#|---12---12--------------------------------------12-12-12-12-12-12-12-12-|
G#|----0-------------------------------------------------------------------|
C#|------------------------------------------------------------------------|

continued....
D#|----------------------------------------0--0--0--0--0--0--0--0--0--0--0--0--|
A#|-------13-13----13----13---------13-13-13-13-13-13-13-13-13-13-13-13-13-13--|
F#|-14-14-14-14-14-14-14-14---14-14-14-14-14-14-14-14-14-----------------------|
C#|-12-12-12-12-12-12-12-12---12-12-12-12--------------------------------------|
G#|----------------------------0-----------------------------------------------|
C#|----------------------------------------------------------------------------|

continued.....
D#|--0------------------------------------------------|
A#|-13-13--------------------------------13-13-13-13--|
F#|----14--14-14-14-14-14-14-14-14-14-14-14-14-14-14--|
C#|--------12-12-12-12-12-12-12-12-12-12-12-12-12-12--|
G#|---------------------0--0-----0--0--0--0--0--0--0--|
C#|---------------------------------------------------|

Verse:
D#|-----------------------------------------------------------------------------
A#|-----------------------------------------------------------------------------
F#|12-12--12--14-14-14-14-14-14-14-14-14-14-14-11-11-11-11-11-11-11-11-11-11-11-
C#|-x--x---x--x---x--x--x--x--x--x--x--x--x--x--x--x--x--x--x--x--x--x--x--x--x-
G#|10-10--10--12-12-12-12-12-12-12-12-12-12-12--9--9--9--9--9--9--9--9--9--9--9-
C#|-0--0---0---0--0--0--0--0--0--0--0--0--0--0--0--0--0--0--0--0--0--0--0--0--0-

Chorus:                                        Interlude:
D#|------------------------------------------|--0--0--0--0--0--0--0--0--0--0--0-
A#|------------------------------------------|-13-13-13-13-13-13-13-13-13-13-13-
F#|7-7-7-7-7-7-7--4-4-4-4-4-4-4---2-2-2-22-2-|-14-14-14-14-14-14-14-14-14-14-14-
C#|5-5-5-5-5-5-5--2-2-2-2-2-2-2---0-0-0-00-0-|--0--0--0--0--0--0--0--0--0--0--0-
G#|5-5-5-5-5-5-5--2-2-2-2-2-2-2---0-0-0-00-0-|----------------------------------
C#|5-5-5-5-5-5-5--2-2-2-2-2-2-2---0-0-0-00-0-|----------------------------------

Outro:
D#|-------------0---0---0---0---0---0---0---0---0------------------0--0--0-|
A#|------------13--13--13--13--13--13--13--13--13-----------13----13-13-13-|
F#|---14---14--14--14--14--14--14--14--14--14--14--14-14-14-14-14-14-14-14-|
C#|---12---12--------------------------------------12-12-12-12-12----------|
G#|----0-------------------------------------------------------------------|
C#|------------------------------------------------------------------------|

continued....
D#|----0--0--0--0--0--0--0--0--0--0--0------------------0--0--0--0--0--0--0--0--
A#|---13-13-13-13-13-13-13-13-13-13-13-13--------13-13-13-13-13-13-13-13-13-13--
F#|---14-14-14-14-14-14-14-14-14-14-14-14--14-14-14-14-14-14-14-14-14-14-14-14--
C#|------------------------------------12--12-12-12-12--------------------------
G#|-----------------------------0-----------0-----------------------------------
C#|-----------------------------------------------------------------------------

continued.....
D#|--0--0--0--0-----0--0--0--0--0--0--0--0--0--0--0--0--0--0--0--0--|
A#|-13-13-13-13-13-13-13-13-13-13-13-13-13-13-13-13-13-13-13-13-13--|
F#|----------14-14-14-14-14-14-14-14-14-14-14-14-14-14-14-14-14-14--|
C#|-------------12-12-12-12-------------------------------------12--|
G#|-----------------------------------------------------------------|
C#|-----------------------------------------------------------------|
 
    Itlof
		   
AcordesyTabs.com © 2008 Acordes y Tablaturas para guitarra. Tabs and Chords for guitar. Aviso Legal - Contacto
El uso de este sitio está sujeto a la aceptación de los términos y condiciones (29 usuarios online)