tablaturas, partituras y acordes para guitarra
Busca por banda/artista:
 
y/o título de la canción:
A B C D E F G H I J K L M N O P Q R S T U V W X Y Z 0 1 2 3 4 5 6 7 8 9 / Top 100 tabs
Categorías
Usuarios
usuario:
Darse de alta
password:
Artistas más visitados
Publicidad
TOP acordes y tablaturas de Deftones


Rx Queen
de Deftones
Puntúa este acorde/tab:      
(0.3/5)
Reportar este acorde/tab
  Añadir a tus favoritos
  Imprimir
this song is easy-there are about 2 parts
tune your guitar down to drop C-

c
g
c
f
a
d

verse

d-------------------------
a-------------------------
f-------------------------
c-------------------------
g-------------------------
c---0---2---2---/9---/3---

chorus

d--------------------------------------
a--------------------------------------
f-------4-4-4-4-4-4-4-4-7-7-7-7-7-7-7-7
c-------2-2-2-2-2-2-2-2-5-5-5-5-5-5-5-5
g-------2-2-2-2-2-2-2-2-5-5-5-5-5-5-5-5
c---0---2-2-2-2-2-2-2-2-5-5-5-5-5-5-5-5

repeat as necessary

in the 2nd and 3rd chorus he plays this after the original chorus

d------------------
a------------------
f-5-5-5-5-5-5-5-5--
c-3-3-3-3-3-3-3-3--
g-3-3-3-3-3-3-3-3--
c-3-3-3-3-3-3-3-3-0

i think thats about it.  if im wrong please correct me.
		   
AcordesyTabs.com © 2008 Acordes y Tablaturas para guitarra. Tabs and Chords for guitar. Aviso Legal - Contacto
El uso de este sitio está sujeto a la aceptación de los términos y condiciones (25 usuarios online)