tablaturas, partituras y acordes para guitarra
Busca por banda/artista:
 
y/o título de la canción:
A B C D E F G H I J K L M N O P Q R S T U V W X Y Z 0 1 2 3 4 5 6 7 8 9 / Top 100 tabs
Categorías
Usuarios
usuario:
Darse de alta
password:
Artistas más visitados
Publicidad
TOP acordes y tablaturas de Deftones


Estás en: Inicio > Letra D > Acordes y tablaturas de Deftones > Street Carp
Street Carp
de Deftones
Puntúa este acorde/tab:      
(0.2/5)
Reportar este acorde/tab
  Añadir a tus favoritos
  Imprimir
OK HERE IS A GREAT SONG I HAVE BEEN WORKING ON FOR 
SEVERAL DAYS NOW, EVERYONE HAS OWAITED THIS SONG 
TO BE ON GUITARTABS.CC AND NOW IT IS HERE IS STREET CARP!

TUNING: down one full step and drop d (C-G-C-F-A-D)


     RIFF 1:

    |---------------------------------|
    |---------------------------------|
    |-----------------8-8-8-8-8-8-8-8-|
    |-9-9-9-9-9-9-9-9-8-8-8-8-8-8-8-8-|
    |-9-9-9-9-9-9-9-9-6-6-6-6-6-6-6-6-|
    |-9-9-9-9-9-9-9-9-----------------|

     RIFF 2:

    |---------------------------------|
    |---------------------------------|
    |---------------------------------|
    |-6-7-6-0-6-9-6-0-6-7-6-0-6-9-6-0-|
    |-6-7-6-0-6-9-6-0-6-7-6-0-6-9-6-0-|
    |-6-7-6-0-6-9-6-0-6-7-6-0-6-9-6-0-|

     RIFF 3:

    |-----------------------------------------------------------------|
    |-----------------------------------------------------------------|
    |-8-8-8-8-8-8-8-8-8-8-8-8-9---9---4-4-4-4-4-4-4-4-4-4-4-4-4-4-4-4-|
    |-6-6-6-6-6-6-6-6-6-6-6-6-7---7---2-2-2-2-2-2-2-2-2-2-2-2-2-2-2-2-|
    |-6-6-6-6-6-6-6-6-6-6-6-6-7---7---2-2-2-2-2-2-2-2-2-2-2-2-2-2-2-2-|
    |-6-6-6-6-6-6-6-6-6-6-6-6-7---7---2-2-2-2-2-2-2-2-2-2-2-2-2-2-2-2-|

IF ANY TROUBLE WITH THIS OR ANYOTHER TABS E-MAIL ME AT BOOBOB420@AOL.COM
I WILL BE GLAD TO HELP YOU , AND TAB OUT ANY SONGS 4 YOU THAT YOU CANNOT FIND!
		   
AcordesyTabs.com © 2008 Acordes y Tablaturas para guitarra. Tabs and Chords for guitar. Aviso Legal - Contacto
El uso de este sitio está sujeto a la aceptación de los términos y condiciones (24 usuarios online)