tablaturas, partituras y acordes para guitarra
Busca por banda/artista:
 
y/o título de la canción:
A B C D E F G H I J K L M N O P Q R S T U V W X Y Z 0 1 2 3 4 5 6 7 8 9 / Top 100 tabs
Categorías
Usuarios
usuario:
Darse de alta
password:
Artistas más visitados
Publicidad
TOP acordes y tablaturas de Jaguares


Estás en: Inicio > Letra J > Acordes y tablaturas de Jaguares > La Celula Que Explota
La Celula Que Explota
de Jaguares
Puntúa este acorde/tab:      
(0.1/5)
Reportar este acorde/tab
  Añadir a tus favoritos
  Imprimir
Hola amigos espero que se la pasen super chido tocando
estas rolas con sus amigos les paso esta transcripción,
que claro se la dedico a una niña super chida Olga C.S!

Intro:

                                    Bm
|--5-5--5-5---3-3----2-----0----2----------| 
|--7-7--7-7---5-5--3---3-2---3--3----------| 
|-------------------------------4----------|
|-------------------------------4----------|
|-------------------------------2----------|
|-------------------------------2----------|

                                         Bm
|--2-2---3-3-----5------|  |--5--3--2----2---------|
|--3-3---5-5---7--------|  |--7--5--3----3---------|
|-----------------------|  |-------------4---------|
|-----------------------|  |-------------4---------|
|-----------------------|  |-------------2---------|
|-----------------------|  |-------------2---------|

Despues del intro va esto con dos guitarras:

Acompañamiento: Bm-F#m-G-A-Bm-F#m-G-A.(Esto claro se toca con la segunda guitarra)

  Bm       F#m       G          A                       
|--5-5--5-5---3-3----2-----0-----2-----------------|
|--7-7--7-7---5-5--3---3-2---3---3-----------------|
|--------------------------------4-----------------|
|--------------------------------4-----------------|
|--------------------------------2-----------------|
|--------------------------------2-----------------|

   Bm         F#m     G        A       
|--2-2--3-3----5---5--3--2---2---------------------|
|--3-3--5-5--7-----7--5--3---3---------------------|
|----------------------------4---------------------|
|----------------------------4---------------------|
|----------------------------2---------------------|
|----------------------------2---------------------|


Luego empieza la rola así:

Bm                       A
Hay veces que no tengo ganas de verte
Bm                       G
Hay veces que no quiero, ni tocarte
 A                       Bm                  
Hay veces que quisiera ahogarte en un grito
F#m            Bm        
Y olvidarme de esa imagen tuya
G    A  Bm
Pero no me atrevo.


Luego va esto:

|--5-5--5-5---3-3---2-2---3-3-----5--------|
|--7-7--7-7---5-5---3-3---5-5---7----------|
|------------------------------------------|
|------------------------------------------|
|------------------------------------------|
|------------------------------------------|


Bm                G
Hay veces que no dejo de soñarte
Bm               A
De acariciarte hasta que ya no pueda
 F                       G
Hay veces que quisiera morir contigo
A               Bm
Y olvidarme de toda materia
 G   A  Bm
Pero no me atrevo.


F#m-G-A-F-G-A

Bm                 G
Hay veces que no se lo que pasa
Bm                 G
Ya no puedo saber que es lo que pasa adentro
  A         Bm 
Somos como gatos en celo
  A         Bm
Somos una celula que explota
G  A  Bm
Y esa no la paras.

F#m
No,

      G
No la paras
A
No,
F
No,
   G
Noooooooo.

Bm-A-F-G-A-Bm-F#m-G-A.

Y este es el fin:
                               Bm
|--5-5--5-5---3-3----2-----0-----2---------|
|--7-7--7-7---5-5--3---3-2---3---3---------|
|--------------------------------4---------|
|--------------------------------4---------|
|--------------------------------2---------|
|--------------------------------2---------|
		   
AcordesyTabs.com © 2008 Acordes y Tablaturas para guitarra. Tabs and Chords for guitar. Aviso Legal - Contacto
El uso de este sitio está sujeto a la aceptación de los términos y condiciones (17 usuarios online)