tablaturas, partituras y acordes para guitarra
Busca por banda/artista:
 
y/o título de la canción:
A B C D E F G H I J K L M N O P Q R S T U V W X Y Z 0 1 2 3 4 5 6 7 8 9 / Top 100 tabs
Categorías
Usuarios
usuario:
Darse de alta
password:
Artistas más visitados
Publicidad
TOP acordes y tablaturas de Depeche Mode


Dream On
de Depeche Mode
Puntúa este acorde/tab:      
(0.4/5)
Reportar este acorde/tab
  Añadir a tus favoritos
  Imprimir
Depeche Mode 
Dream on

Main Riff 1
e/------------------------------------
b/------------------------------------
g/------------------------------------
d/------1---4--1-------1------1---     x3
a/--1----------------4------4------
E/-----------------------------------

e/-----------------------------------------
b/-----------------------------------------
g/-----2-----2---2-----2-----2---2----
d/---2-----2---------2-----2------------
a/--0-----0-----0---3-----3-----3-----
E/----------------------------------------

Repeat till Bridge 

e/------6----------------------
b/------6----------------------  
g/------6---------------------    Palm mute x6
d/------6----------------------
a/------6----------------------
E/----- 6----------------------

e/---------------------
b/---------------------
g/---------------0-----
d/---------0H2---------
a/-----0H2-------------
E/---------------------

Thats it! If want it to sound perfect take half a step down But I 
don't think it matters that much

Enjoy!


Help from Dale Tabbed By Paddy simms



		   
AcordesyTabs.com © 2008 Acordes y Tablaturas para guitarra. Tabs and Chords for guitar. Aviso Legal - Contacto
El uso de este sitio está sujeto a la aceptación de los términos y condiciones (17 usuarios online)