tablaturas, partituras y acordes para guitarra
Busca por banda/artista:
 
y/o título de la canción:
A B C D E F G H I J K L M N O P Q R S T U V W X Y Z 0 1 2 3 4 5 6 7 8 9 / Top 100 tabs
Categorías
Usuarios
usuario:
Darse de alta
password:
Artistas más visitados
Publicidad
TOP acordes y tablaturas de Attaque 77


Estás en: Inicio > Letra A > Acordes y tablaturas de Attaque 77 > La colina de la vida
La colina de la vida
de Attaque 77
Puntúa este acorde/tab:      
(0.4/5)
Reportar este acorde/tab
  Añadir a tus favoritos
  Imprimir
e-----------------------------------------------|
B-----------------------------------------------|
G-9--11-9---------------------------------------| X2
D---------12-11--9----9---11-9------------------|
A------------------12----------12-10--9-10------|
E------------------------------------------12---|

e-----------------------------------------------------------------------
B-----------------------------------------------------------------------
G--------------------------11-------------------------------------------
D-12-10-9----9---------------------------12-10-9----9-------------------
A---------12---12-10-9-10-----9------------------12---12-10-9-10--10-9--
E--------------------------------12-10----------------------------------

Bm
Casi, casi nada
me resulta pasajero
D                  G
todo prende de mis sueños
Bm                   E
y se acoplan en mi espalda
      A  G
y asi su-bo
Bm                   G          Bm
muy tranquilo a la colina de la vida

Bm
Nunca me creo
en la cima o en la gloria
D                 G
eso es un gran fantasma
Bm               E
creado por generaciones
    A  G
pasará-a
Bm               G          Bm    A - G - Bm - A - G
atascado en el umbral de la vida

Bm                 E      
La realidad duerme sola en un entierro
A                      Bm
y camina triste por el sueño del mas bueno
                  E
la realidad baila sola en la mentira
     A
y en un bolsillo tiene
 Bm    A  G
amor y alegría
           A    G
un dios de fantasía
   Bm       A     G  Bm
la guerra y la poesí-a

e-----------------------------------------------
B-----------------------------------------------
G-9--11-9---------------------------------------
D---------12-11--9----9---11-9------------------
A------------------12----------12-10--9-10------
E------------------------------------------12---

e-----------------------------------------------------------------------
B-----------------------------------------------------------------------
G--------------------------11-------------------------------------------
D-12-10-9----9---------------------------12-10-9----9-------------------
A---------12---12-10-9-10-----9------------------12---12-10-9-10--10-9--
E--------------------------------12-10----------------------------------

Bm
Tengo de todo 
para ver y creer
D                G
para obviar ó querer
Bm             E
y a veces me encuentro
    A G
solitario
Bm               G          Bm
llorando en el umbral de la vida

Bm
Busco hacer pie 
en el mundo del revés
D                G
busco algún buen amigo
Bm              E
para que no me atrapen
      A  G
algún dí-a
Bm                G           Bm    A - G - Bm - A - G
temiendo hallarla muerta a la vida

Bm                 E      
La realidad duerme sola en un entierro
A                      Bm
y camina triste por el sueño del mas bueno
                  E
la realidad baila sola en la mentira
     A
y en un bolsillo tiene
 Bm    A  G
amor y alegría
           A    G
un dios de fantasía
   Bm       A     G  Bm
la guerra y la poesí-a

e-----------------------------------------------
B-----------------------------------------------
G-9--11-9---------------------------------------
D---------12-11--9----9---11-9------------------
A------------------12----------12-10--9-10------
E------------------------------------------12---

e-----------------------------------------------------------------------
B-----------------------------------------------------------------------
G--------------------------11-------------------------------------------
D-12-10-9----9---------------------------12-10-9----9-------------------
A---------12---12-10-9-10-----9------------------12---12-10-9-10--10-9--
E--------------------------------12-10----------------------------------
		   
AcordesyTabs.com © 2008 Acordes y Tablaturas para guitarra. Tabs and Chords for guitar. Aviso Legal - Contacto
El uso de este sitio está sujeto a la aceptación de los términos y condiciones (30 usuarios online)