tablaturas, partituras y acordes para guitarra
Busca por banda/artista:
 
y/o título de la canción:
A B C D E F G H I J K L M N O P Q R S T U V W X Y Z 0 1 2 3 4 5 6 7 8 9 / Top 100 tabs
Categorías
Usuarios
usuario:
Darse de alta
password:
Artistas más visitados
Publicidad
TOP acordes y tablaturas de Attaque 77


Estás en: Inicio > Letra A > Acordes y tablaturas de Attaque 77 > La colina de la vida
La colina de la vida
de Attaque 77
Puntúa este acorde/tab:      
(0.6/5)
Reportar este acorde/tab
  Añadir a tus favoritos
  Imprimir
|------------------|------------------|-----------------|
|------------------|------------------|-----------------|
|--9----------11-9-|12-11-----9-----9-|-----------------|
|------------------|--------------12--|-------------11-9|
|------------------|------------------|-----------------|
|------------------|------------------|-----------------|

   1   2   3   4      1   2   3   4      1   2   3   4

|------------------|------------------|-----------------|
|------------------|------------------|-----------------|
|------------------|------------------|-----------------|
|------------------|------------------|-----------------|
|12-10-----9--10---|------------------|-----------------|
|---------------12-|------------------|-----------------|

   1   2   3   4      1   2   3   4      1   2   3   4

|------------------|------------------|-----------------|
|------------------|------------------|-----------------|
|--9----------11-9-|12-11-----9-----9-|-----------------|
|------------------|--------------12--|-------------11-9|
|------------------|------------------|-----------------|
|------------------|------------------|-----------------|

   1   2   3   4      1   2   3   4      1   2   3   4

|------------------|------------------|-----------------|
|------------------|------------------|-----------------|
|------------------|------------------|-----------------|
|------------------|------------------|-11--------------|
|12-10-----9--10---|------------------|-----------------|
|---------------12-|------------------|-----------------|

   1   2   3   4      1   2   3   4      1   2   3   4

|---------------------|---------------------|----------------------|
|---------------------|---------------------|----------------------|
|---------------------|---------------------|----------------------|
|12-11--9----9--------|---------------------|----------------------|
|--------12---12--10-9|-10-------------10---|---9--------------12--|
|---------------------|---------------------|----------------------|

   1    2     3    4    1    2    3    4        1    2    3    4

|----------------------|
|----------------------|
|----------------------|
|----------------------|
|-10-------------------|
|----------------------|
   1    2    3    4

|---------------------|---------------------|----------------------|
|---------------------|---------------------|----------------------|
|---------------------|---------------------|----------------------|
|12-11--9----9--------|---------------------|----------9-----------|
|--------12---12--10-9|-10-------------10---|---9------------------|
|---------------------|---------------------|----------------------|

   1    2     3    4    1    2    3    4        1    2    3    4

|----------------------||----------------------|
|----------------------||----------------------|
|----------------------||----------------------|
|----------------------||----------------------|
|----------------------||----------------------|
|------------10--------||--9-------------------|
   1    2    3    4        1    2    3    4

Cualquier cosa me pueden escribir a marcelloelo@hotmail.com y les
responderé lo más rápido que pueda.
		   
AcordesyTabs.com © 2008 Acordes y Tablaturas para guitarra. Tabs and Chords for guitar. Aviso Legal - Contacto
El uso de este sitio está sujeto a la aceptación de los términos y condiciones (36 usuarios online)