tablaturas, partituras y acordes para guitarra
Busca por banda/artista:
 
y/o título de la canción:
A B C D E F G H I J K L M N O P Q R S T U V W X Y Z 0 1 2 3 4 5 6 7 8 9 / Top 100 tabs
Categorías
Usuarios
usuario:
Darse de alta
password:
Artistas más visitados
Publicidad
TOP acordes y tablaturas de Dio


Estás en: Inicio > Letra D > Acordes y tablaturas de Dio > Stand Up And Shout
Stand Up And Shout
de Dio
Puntúa este acorde/tab:      
(0.4/5)
Reportar este acorde/tab
  Añadir a tus favoritos
  Imprimir
Artist: Dio
Title: Stand Up And Shout
Written by: Ronnie James Dio & Jimmy Bain
Transcribed by: Mark James Cullen B.A., Bray, Co. Wicklow, Ireland.

From the album Holy Diver.  Standard tuning

Fig 1.   
                                                                     X2
p.m.-----]                                       ~~                             
E-------------------------------------------------------------------------------
B-------------------------------------------------------------------------------
G-----------5------5------5-----4-----(4)------------5----5-----5-p-4-----7-----
D-----------5------5------5-----4-----(4)------------5----5-----5-p-4-----7-----
A----0-0-------0------0-----0----------------0-0-------0-----0---------0--------
E-------------------------------------------------------------------------------
                                                                                
                              X2
p.m.-----]                                      ~~                              
E-------------------------------------------------------------------------------
B-------------------------------------------------------------------------------
G-----------5------5------5-----4-----4------------5----5----5-p-4-----7-----7--
D-----------5------5------5-----4-----4------------5----5----5-p-4-----7-----7--
A----0-0-------0------0-----0----------------0-0-----0----0---------0-----------
E-------------------------------------------------------------------------------


  _______________________________________________
[ 2.                                          let ring                   pick sc
  E-----------------------------------------------------------------------------
  B-----------------------------------------------------------------------------
  G--------5----5-----5-p-4------7---------------------------------------------
  D--------5----5-----5-p-4------7---------------------x----------------------
  A---0-0----0----0----------0--------------------------x---------------------
  E-----------------------------------------------------------------------------

First Verse

p.m.-----]                                      ~~                              
E-------------------------------------------------------------------------------
B-------------------------------------------------------------------------------
G-----------5------5------5-----4-----4------------5----5----5-p-4-----7-----7--
D-----------5------5------5-----4-----4------------5----5----5-p-4-----7-----7--
A----0-0-------0------0-----0----------------0-0-----0--- 0---------0-----------
E-------------------------------------------------------------------------------





Next comes the ‘you’ve got desire, so let it out. You’ve got the power, stand up

E-------------------------------------------------------------------------------
B-------------------------------------------------------------------------------
G--------7--7---------------5--5---------------9--9--------------5--5-----------
D--------7--7---------------5--5---------------9--9--------------5--5-----------
A---------------0-0-0-0-0--------0-0-0-0-0--------0-0-0-0-0--------0-0-0-0-0----
E-------------------------------------------------------------------------------
                                                       W/ pinched harmonics 
                                                  |-----------------------------
                                                                                
E-------------------------------------------------------------------------------
B-------------------------------------------------------------------------------
G-----------------5--5----------------------------------------------------------
D-----------------5--5----------------5---3------5---3-----5---3----------------
A----0-0-0-0-0--------0-0-0-0-0-----------5----------5----------5-4-3----1------
E-------------------------------------------------------------------------------

Chorus                                                                          
                              X2
p.m.-----]                                      ~~                              
E-------------------------------------------------------------------------------
B-------------------------------------------------------------------------------
G-----------5------5------5-----4-----4------------5----5----5-p-4-----7-----7--
D-----------5------5------5-----4-----4------------5----5----5-p-4-----7-----7--
A----0-0-------0------0-----0----------------0-0-----0----0---------0-----------
E-------------------------------------------------------------------------------

Second Verse,etc. same as the first verse.

Second chorus
                              X2
p.m.-----]                                      ~~                              
E-------------------------------------------------------------------------------
B-------------------------------------------------------------------------------
G-----------5------5------5-----4-----4------------5----5----5-p-4-----7-----7--
D-----------5------5------5-----4-----4------------5----5----5-p-4-----7-----7--
A----0-0-------0------0-----0----------------0-0-----0----0---------0-----------
E-------------------------------------------------------------------------------

______________________________________________
[ 2.                                          let ring                   pick sc
  E-----------------------------------------------------------------------------
  B-----------------------------------------------------------------------------
  G--------5----5-----5-p-4------7---------------------------------------------
  D--------5----5-----5-p-4------7---------------------x----------------------
  A---0-0----0----0----------0--------------------------x---------------------
  E-----------------------------------------------------------------------------

At the point with the pick scrape there is an over dub marking the beginning of 
p.m.-----------------------------|              p.m.-------------------------|
E-------------------------------------||----------------------------------------
B-------------------------------------||----------------------------------------
G----4-4-4-4--4-4-4-4--4-4-4-4-||-o-7--7---4-4-4--4-4-4-4--4-4-4-4------
D----4-4-4-4--4-4-4-4--4-4-4-4-||-o-7--7---4-4-4--4-4-4-4--4-4-4-4-------
A----2-2-2-2--2-2-2-2--2-2-2-2-||----5--5---2-2-2--2-2-2-2--2-2-2-2-------
E-------------------------------------||----------------------------------------
                                                             X4                
             p.m.-------------------------|   
E----------------------------------------------||-----
B----------------------------------------------||-----
G---2--2---4-4-4--4-4-4-4--4-4-4-4--o-||-----
D---2--2---4-4-4--4-4-4-4--4-4-4-4--o-||-----
A---0--0---2-2-2--2-2-2-2--2-2-2-2---- ||-----
E----------------------------------------------||-----
­­­­­­­­­­­­­­­­­­________________________________________
|4.
                                                                                
E--------------------------------------------------------------------
B--------------------------------------------------------------------
G----7--7----4-4-4--4-4-4-4--43--2------5----5-----5--5----
D----7--7----4-4-4--4-4-4-4--43--2------5----5-----5--5----
A----5--5----2-2-2--2-2-2-2--21--0---------0-----0---------- 
E--------------------------------------------------------------------
                                                   ~~ 
E-------------------------------------------------------
B-------------------------------------------------------
G---------5----5---5-p-4-----7----7-----------------
D---------5----5---5-p-4-----7----7-----------------
A----0-0----0---0---------0--------------------------
E-------------------------------------------------------
                                           ~~                                   
E-------------------------------------------------------------------------------
B-------------------------------------------------------------------------------
G---------5----5----5----4---4-----------5----5----5-p-4-----7----7-------------
D---------5----5----5----4---4-----------5----5----5-p-4-----7----7------------
A----0-0----0----0----0------------0-0-----0----0---------0---------------------
E-------------------------------------------------------------------------------

Third Verse
                              X2
p.m.-----]                                      ~~                              
E-------------------------------------------------------------------------------
B-------------------------------------------------------------------------------
G-----------5------5------5-----4-----4------------5----5----5-p-4-----7-----7--
D-----------5------5------5-----4-----4------------5----5----5-p-4-----7-----7--
A----0-0-------0------0-----0----------------0-0-----0----0---------0-----------
E-------------------------------------------------------------------------------
This next bit has a variation in it:

E-------------------------------------------------------------------------------
B-------------------------------------------------------------------------------
G--------7--7---------------5--5---------------9--9--------------5--5-----------
D--------7--7---------------5--5---------------9--9--------------5--5-----------
A---------------0-0-0-0-0--------0-0-0-0-0--------0-0-0-0-0--------0-0-0-0-0----
E-------------------------------------------------------------------------------

E-------------------------------------------------------------------------------
B-------------------------------------------------------------------------------
G-----------------5--------------12--12---------------5--5---------------7--7---
D-----------------5--------------12--12---------------5--5---------------7--7---
A----0-0-0-0-0----0-0-0-0-0-----------0-0-0-0-0---------0-0-0-0-0---------------
E-------------------------------------------------------------------------------

E-------------------------------------------------------------------------------
B-------------------------------------------------------------------------------
G-----------------5--5--------------9--9---------------5--5---------------10--10
D-----------------5--5--------------9--9---------------5--5---------------10--10
A----0-0-0-0-0-------0-0-0-0-0---------0-0-0-0-0--------0-0-0-0-0---------------
E-------------------------------------------------------------------------------

                                                       W/ pinched harmonics 
                                                  |-----------------------------
                                                                                
E-------------------------------------------------------------------------------
B-------------------------------------------------------------------------------
G-----------------5--5----------------------------------------------------------
D-----------------5--5----------------5---3------5---3-----5---3----------------
A----0-0-0-0-0--------0-0-0-0-0-----------5----------5----------5-4-3----1*-----
E-------------------------------------------------------------------------------
                                                                                

Outro w/ solo overdubbed

                                                                                
                              X8
p.m.-----]                                      ~~                              
E-------------------------------------------------------------------------------
B-------------------------------------------------------------------------------
G-----------5------5------5-----4-----4------------5----5----5-p-4-----7-----7--
D-----------5------5------5-----4-----4------------5----5----5-p-4-----7-----7--
A----0-0-------0------0-----0----------------0-0-----0----0---------0-----------
E-------------------------------------------------------------------------------





______________________________________________
[ 8.                                         let ring                         pi
  E-----------------------------------------------------------------------------
  B-----------------------------------------------------------------------------
  G--------5----5-----5-p-4------7---------------5------------------------------
  D--------5----5-----5-p-4------7---------------5--------x-----------------
  A---0-0----0----0----------0--------------------3--------x------------------
  E-----------------------------------------------------------------------------
            
          W/tremolo picking
E--------------------------------------------           ------------------------
B--------------------------------------------           ------------------------
G-----2--------------------------------------          ----2--------------------
D-----2--------------------------------------          ----2--------------------
A-----0---------------------------------------         ----0--------------------
E----------------------------------------------         ------------------------

I think that about covers it. One little correction though. The parts in the mai
 -----5-----4--4--         ------5-p-4-----7--7--  
                                                 ---0----0--------           ---
may actually be more like ------5----4--4---4-4-- and  ------5-p-4--- 7--7----7-
         ------5----4--4---4-4--         ------ 5-p-4---7---7---7-7----
         ---0----0----------------         ---0----------------------------.
It’s played so fast you’d hardly notice it anyway but you might want to use thos
I’m afraid the guitar solo can’t be transcribed except by one of those publishin
		   
AcordesyTabs.com © 2008 Acordes y Tablaturas para guitarra. Tabs and Chords for guitar. Aviso Legal - Contacto
El uso de este sitio está sujeto a la aceptación de los términos y condiciones (25 usuarios online)