tablaturas, partituras y acordes para guitarra
Busca por banda/artista:
 
y/o título de la canción:
A B C D E F G H I J K L M N O P Q R S T U V W X Y Z 0 1 2 3 4 5 6 7 8 9 / Top 100 tabs
Categorías
Usuarios
usuario:
Darse de alta
password:
Artistas más visitados
Publicidad
TOP acordes y tablaturas de Allman Brothers Band


Blue Sky
de Allman Brothers Band
Puntúa este acorde/tab:      
(0.6/5)
Reportar este acorde/tab
  Añadir a tus favoritos
  Imprimir
artist: allman bros
title: blue sky
tabbed by: andrew lukis (safarial@aol.com)

here's the intro and chords but i'm still working on the solo.
(x2)
e:----------------------------------------------------12------------------------
b:-----------------------------------------------12-------14--------------------
g:---------------------------9---11/13--14-------------------11b13--11---------9
d:------------------9--11-------------------------------------------------------
a:----7---9/11------------------------------------------------------------------
e:------------------------------------------------------------------------------

e:------------------------------------------------------------------------------
b:------------------------------------------------------------------------------
g:--11/13----9--11p9-------9--11p9----------9--11p9---11/13---------------------
d:--------------------12-------------11-----------------------------------------
a:------------------------------------------------------------------------------
e:------------------------------------------------------------------------------

chords for the first verse are:
(strum) / / /   / / /
e       b   a         
0       2      0
0       4      2
1       4      2
2       4      2
2       2      0
0

e     b     a     e     e     b     a(4measures)

e:------------------------------------------------------------------------------
b:------------------------------------------------------------------------------
g:--11b13---11--9---------------------------------------------------------------
d:---------------------11--9----------------------------------------------------
a:-------------------------------11--9--11--9/7--------------7-7----------------
e:-------------------------------------------------------7h9--------------------

repeat chords then:

e:------------------------------------------------------------------------------
b:------------------------------------------------------------------------------
g:------------------------------------9---11/13--11--9--------------------------
d:----------------------------9--11---------------------------------------------
a:----------7---9p7--9/11-------------------------------------------------------
e:--7---9-----------------------------------------------------------------------

chords:
b    a    e    a    b    a    e    a    a    b(one stroke)
e(2 measures)    a(2measures)    e    a....
repeat til end then repeat beginning, listen for changes in riffs, but it's all 
		   
AcordesyTabs.com © 2008 Acordes y Tablaturas para guitarra. Tabs and Chords for guitar. Aviso Legal - Contacto
El uso de este sitio está sujeto a la aceptación de los términos y condiciones (21 usuarios online)