tablaturas, partituras y acordes para guitarra
Busca por banda/artista:
 
y/o título de la canción:
A B C D E F G H I J K L M N O P Q R S T U V W X Y Z 0 1 2 3 4 5 6 7 8 9 / Top 100 tabs
Categorías
Usuarios
usuario:
Darse de alta
password:
Artistas más visitados
Publicidad
TOP acordes y tablaturas de Damas Gratis


Estás en: Inicio > Letra D > Acordes y tablaturas de Damas Gratis > La danza de los mirlos
La danza de los mirlos
de Damas Gratis
Puntúa este acorde/tab:      
(0.6/5)
Reportar este acorde/tab
  Añadir a tus favoritos
  Imprimir
 La danza de los mirlos........Damas Gratis

    Punteo.1

e-------------------------------|
b-------------------------------|
g-------------------------------|
d-------------0h2-2-2-2-0-------|
a---0-0-0-0-3-------------0-3---|      
E-------------------------------|

    Punteo.2

e-------0-0-0-0h3------------|
b-----1------------0-3-----1-|
g---2-------------------2----|
d----------------------------|
a----------------------------|
E----------------------------|

   Punteo.3

e-------0-3-2-1-0-----------------|
b-----1-----------3-1-0-3-1-0---1-|
g---2-------------------------2---|
d---------------------------------|
a---------------------------------|
E---------------------------------|

  Punteo.4              
 
               x
e-------9-9-9-9/12-12-12-12-------------|    x: Este slide se puede remplazar 
b-----10--------------------9-12----10--|    por un hammer on (7h10)
g---11---------------------------11-----|
d---------------------------------------|
a---------------------------------------|
E---------------------------------------|

   Punteo.5

e--------------------------------------------------------------------------------------|
b----1------------0-3-------------1-------------0-3------------1-----------0-3---------|
g--2---2--0-0-0-0-----2---2-2-2-2---2---0-0-0-0-----2--2-2-2-2---2-0-0-0-0--------2----|
d--------------------------------------------------------------------------------------|
a--------------------------------------------------------------------------------------|
E--------------------------------------------------------------------------------------|

e-----------------------------3/20------|
b-----------1-----------0-3---3/20------|
g---2-2-2-2---2-0-0-0-0-------3/20------|
d---------------------------------------|
a---------------------------------------|
E---------------------------------------|

 El orden de la canción es el siguiente: 
  
         Punteo.1 (x4).... Punteo.2 (x2).... Punteo.3 (x3)          
         Punteo.1 (x4).... Punteo.2 (x2).... Punteo.3 (x3)
         Punteo.4 (x4).... Punteo.5 (x1)

         Repite el mismo orden



 Para qur la canción suene como la versión en vivo hay que
usar un pedal chorus y un delay y darle un efecto hall.

 h.......Hammer on
 /.......Slide
		   
AcordesyTabs.com © 2008 Acordes y Tablaturas para guitarra. Tabs and Chords for guitar. Aviso Legal - Contacto
El uso de este sitio está sujeto a la aceptación de los términos y condiciones (18 usuarios online)