tablaturas, partituras y acordes para guitarra
Busca por banda/artista:
 
y/o título de la canción:
A B C D E F G H I J K L M N O P Q R S T U V W X Y Z 0 1 2 3 4 5 6 7 8 9 / Top 100 tabs
Categorías
Usuarios
usuario:
Darse de alta
password:
Artistas más visitados
Publicidad
TOP acordes y tablaturas de Damas Gratis


Estás en: Inicio > Letra D > Acordes y tablaturas de Damas Gratis > La danza de los mirlos
La danza de los mirlos
de Damas Gratis
Puntúa este acorde/tab:      
(0.8/5)
Reportar este acorde/tab
  Añadir a tus favoritos
  Imprimir
1|---------------------------|
2|---------------------------|
3|---------------------------| x4
4|---------------------------|
5|-0-0-0-0-3-5/7-7-7-7-7-2-5-|
6|---------------------------|

1|-----0-0-0-0h2---------|
2|---1-----------0-3---1-|
3|-2-----------------2---| x2
4|-----------------------|
5|-----------------------|
6|-----------------------|

1|-----0-0-0-3-2-1-0-------------|
2|---1---------------1-0-3-1---1-|
3|-2-------------------------2---|x3
4|-------------------------------|
5|-------------------------------|
6|-------------------------------|

empieza todo de nuevo y sigue con este punteo:

1|-------9-9-9-9-9-9-------------|
2|----10-------------9-12-----10-|
3|-11---------------------11-----| x4
4|-------------------------------|
5|-------------------------------|
6|-------------------------------|

1|------------------------------------------------------
2|---1-----------0-3----------1-----------0-3----------
3|-2---2-0-0-0-0-----2—-2-2-2---2-0-0-0-0-----2—--------
4|------------------------------------------------------
5|------------------------------------------------------
6|------------------------------------------------------

1|------------------------------------------------3/12--|
2|-------1-----------0-3----------1-----------0-3-3/12--|
3|-2-2-2---2-0-0-0-0-----2—-2-2-2---2-0-0-0-0-----3/12--|
4|------------------------------------------------------|
5|------------------------------------------------------|
6|------------------------------------------------------|

se repite todo
		   
AcordesyTabs.com © 2008 Acordes y Tablaturas para guitarra. Tabs and Chords for guitar. Aviso Legal - Contacto
El uso de este sitio está sujeto a la aceptación de los términos y condiciones (26 usuarios online)