tablaturas, partituras y acordes para guitarra
Busca por banda/artista:
 
y/o título de la canción:
A B C D E F G H I J K L M N O P Q R S T U V W X Y Z 0 1 2 3 4 5 6 7 8 9 / Top 100 tabs
Categorías
Usuarios
usuario:
Darse de alta
password:
Artistas más visitados
Publicidad
TOP acordes y tablaturas de Marea


Estás en: Inicio > Letra M > Acordes y tablaturas de Marea > En tu agujero
En tu agujero
de Marea
Puntúa este acorde/tab:      
(0.5/5)
Reportar este acorde/tab
  Añadir a tus favoritos
  Imprimir
He aquí una nueva partitura de esta canción ya que la otra me resulta desastrosa. 

Este es el bajo del inicio



E.-----------------------------------------------------------------
B.-----------------------------------------------------------------
G.-----------------------------------------------------------------
D.-----------------------------------------------------------------
A.-----5555555555---33333333333--11111111111111-3333333333333------
E.-----------------------------------------------------------------


E.-----------------------------------------------------------------
B.-----------------------------------------------------------------
G.-----------------------------------------------------------------
D.-----------------------------------------------------------------
A.-----5555555555---33333333333--11111111111111--------------------
E.--------------------------------------------------1111111111111—-


Los acordes de la primera parte de la cancion son los mismos que lo del bajo.

Cuando cambia el ritmo los acordes son los siguientes:


     (Después de pasar...
E.-----------------------------------------------------------------
B.-----------------------------------------------------------------
G.---7--7-------------------5--------------------------------------
D.---7--7---7--7----5--5----5--------------------------------------
A.---5--5---7--7----5--5----3--------------------------------------
E.----------5--5----3--3-------------------------------------------



   (un agujero y me vuelvo...

E.-----------------------------------------------------------------
B.-----------------------------------------------------------------
G.--3---5----------------------------------------------------------
D.--3---5--3------7------------------------------------------------
A.--1---3--3------7------------------------------------------------
E.---------1—PM---5-PM---------------------------------------------


E.-----------------------------------------------------------------
B.-----------------------------------------------------------------
G.--3---5----------------------------------------------------------
D.--3---5-----7----------------------------------------------------
A.--1---3-----7----------------------------------------------------
E.------------5----------------------------------------------------

En tu agujero

Me importa una mierda los labios que quieras bordar,
pero con la que cae...
¿dónde vas desde que te han cerrado los tejados?,
me limo las uñas, no tengo ganas de ná.
tengo ya los nudillos cansados
de quitar cascotes cuando me empiezo a derrumbar,
de apilarlos para sombrear
y anudarme desnudo en tus brazos,
que teja en las tejas la lluvia, que a mi me da igual,
más difícil para resbalar, más sencillo quedarme enredado,

después de pasar la noche en tu agujero,
salgo del portal, y tó me importa un huevo,
empiezo a escuchar un avispero
y me vuelvo contigo y lo veo a colores,
mi lápiz entiende de sucios amores
y de puertas pa fuera se hará todo añicos,
pa cuando te enteras ya soy tu abanico,
que me hice con varas del aire pa no molestar,

no busque razones de piedra, no vas a encontrar
más que hiedra intentado abarcar
campos yermos que tengo por dentro,
y barro y manchitas muy secas que dan que pensar,
adoquines que están por pisar,
pisotones haciendo senderos,
que ya tengo bastante con lo que poder fumigar
calendarios que tiran patrás,
tengo los dedos amarillentos
de buscar candela en la estela que haces al pasar,
de estañarme a tu enjambre y libar
con el humo de mis pensamientos,

después de pasar la noche en tu agujero,
salgo del portal, y tó me importa un huevo,
empiezo a escuchar un avispero
y me vuelvo contigo y lo veo a colores,
mi lápiz entiende de sucios amores
y unas sábanas chorreando le da por pintar,
y de puertas pafuera se hará todo añicos,
pa cuando te enteras ya soy tu abanico,
que me hice con varas del aire pa no molestar,

corté la garganta del gallo que quiso cantar
alboradas para celebrar que la noche se estaba muriendo,
que si no amanezco, me crezco, y me puedo tragar
cucharadas de la oscuridad de tus ojos,
y así me alimento.

Pues esto es todo, los solos no los he sacao no porque no 
quiera, sino por que mis habilidades guitarristicas no dan 
pa´tanto.

Un saludo a la FEB, y a ti Belen un beso fuerte
		   
AcordesyTabs.com © 2008 Acordes y Tablaturas para guitarra. Tabs and Chords for guitar. Aviso Legal - Contacto
El uso de este sitio está sujeto a la aceptación de los términos y condiciones (58 usuarios online)