tablaturas, partituras y acordes para guitarra
Busca por banda/artista:
 
y/o título de la canción:
A B C D E F G H I J K L M N O P Q R S T U V W X Y Z 0 1 2 3 4 5 6 7 8 9 / Top 100 tabs
Categorías
Usuarios
usuario:
Darse de alta
password:
Artistas más visitados
Publicidad
TOP acordes y tablaturas de Marea


Estás en: Inicio > Letra M > Acordes y tablaturas de Marea > En tu agujero
En tu agujero
de Marea
Puntúa este acorde/tab:      
(1/5)
Reportar este acorde/tab
  Añadir a tus favoritos
  Imprimir
 No sé si estará muy claro, pero bueno allá vamos.

  Riff 1
G|-------------------------------------------------------------------
D|-------------------------------------------------------------------
A|--5-5-5-5-5-5-5-5-3-3-3-3-3-3-3-3-1-1-1-1-1-1-1-1-3-3-3-3-3-3-3-3--
E|-------------------------------------------------------------------

G|-------------------------------------------------------------------
D|-------------------------------------------------------------------
A|--5-5-5-5-5-5-5-5-3-3-3-3-3-3-3-3-1-1-1-1-1-1-1-1------------------
E|--------------------------------------------------1-1-1-1-1-1-1-1--

  Riff 2
G|-------------------------------------------
D|-------------------------------------------
A|--5--5----0--0------------3-3-3-3-3-3-3-3--
E|------------------3--3---------------------

  Riff 3
G|-----------------------------------------------------------------------------------------------
D|-----------------------------------------------------------------------------------------------
A|--1------3----------------------0-0-0-0-0-0-0-0-1------3------0-0-0-0-0-0-0-0-0-0-0-0-0-0-0-0--
E|----------------1-1-1-1-1-1-1-1----------------------------------------------------------------

G|-----------------------------------------------------------------------------------------------------------------
D|-----------------------------------------------------------------------------------------------------------------
A|--1------3----------------------0-0-0-0-0-0-0-0-1-1-1-1-1-1-1-1-3-3-3-3-3-3-3-3-0-0-0-0-0-0-0-0-0-0-0-0-0-0-0-0--
E|----------------1-1-1-1-1-1-1-1----------------------------------------------------------------------------------

 Realmente el riff 2 y el 3 son el mismo, pues forman parte del estribillo,pero los he separado
 porque durante el solo no van juntos y para explicarlo mejor lo he hecho así.


  Riff 4
G|----------------------------------------
D|----------------------------------------
A|--5------3------1------3-3-3-3-3-3-3-5--
E|----------------------------------------


 Composición de la canción:

 Riff 1  x3 (INTRO)
 Riff 1  x4 (ESTROFA)
 Riff 2  x3 (ESTRIBILLO)
 Riff 3  x1 (ESTRIBILLO)
 Riff 1  x1 (PUENTE)
 Riff 1  x4 (ESTROFA)
 RIFF 2  x3 (ESTRIBILLO)
 Riff 3  x1 (ESTRIBILLO
 Riff 3  x1 (SOLO)
 Riff 2  x4 (SOLO) pero la última toca el C solo una vez
 Riff 1  x2 (ESTROFA)
 Riff 2  x3 (ESTRIBILLO)
 Riff 3  x1 (ESTRIBILLO)
 Riff 4  x1 (FINAL)


 Lo siento si es muy largo alguno de los fiff, pero es que no sabía como ponerlo
 para que quedara claro.Me gustaría dedicarselo Úrsula y a mi amigo Paco que le gusta
 mucho MAREA.Si hay alguna duda o algo arriba teneis mi derección.Si veis que cambia un
 poco respecto a la que está puesta como guitarra es porque esa está mal (eso creo), si
 puedo algún día la cambio.Au.
		   
AcordesyTabs.com © 2008 Acordes y Tablaturas para guitarra. Tabs and Chords for guitar. Aviso Legal - Contacto
El uso de este sitio está sujeto a la aceptación de los términos y condiciones (36 usuarios online)