tablaturas, partituras y acordes para guitarra
Busca por banda/artista:
 
y/o título de la canción:
A B C D E F G H I J K L M N O P Q R S T U V W X Y Z 0 1 2 3 4 5 6 7 8 9 / Top 100 tabs
Categorías
Usuarios
usuario:
Darse de alta
password:
Artistas más visitados
Publicidad
TOP acordes y tablaturas de Allman Brothers Band


Midnight Rider
de Allman Brothers Band
Puntúa este acorde/tab:      
(0.8/5)
Reportar este acorde/tab
  Añadir a tus favoritos
  Imprimir
Allman Brothers Band - Midnight Rider
Transcribed by Matt Unger

This is my first tab, so I didn't use proper spacing or anything like that.  I d
Intro:  (Not correct, but it’s something)

e --------------------
B ---------3-------3--
G ------------2----2--
D ----0------------0--
A --------------------
E --------------------

Main Riff:

e -----------------------------
B ------------3----3--------3--
G ------------2----2--------2--
D ------------0----0--------0--
A -----0h3-------------3-------
E -----------------------------

Bridge:

Gtr.1

e ----3--3--3--3--3--3—-3--3--5--5--5--5--5--5--5--5--
B ----3—-3--3--3--3--3--3--3--5--5--5--5--5--5--5--5--
G ----5--5--5--5--5--5--5—-5--7--7--7--7--7--7--7--7--   
D ----5--5--5--5--5--5--5--5--7--7--7--7--7--7--7--7--  
A ----3--3--3--3--3--3--3--3--5--5--5--5--5--5--5--5--
E ----------------------------------------------------

Lead over Bridge:

Gtr. 2

e ----------------------------------------------------------
B ----------------------------------------------------------
G ----5b7---------------------7b9---------------------9b11--
D ----------------------------------------------------------
A ----------------------------------------------------------
E ----------------------------------------------------------

Solo:  (again, not correct but it’s a try)

e ----------10----------------------10-----------------10-----------
B ----------10----------------------10-----------------10-----------
G –7--9b11------9b11r9--7--9-----7------9b11-----9b11------9-----7--
D ----------------------------9-------------------------------9-----
A ------------------------------------------------------------------
E ------------------------------------------------------------------

e ----------------------------------------------------------------
B ----------------------------------------------------------------
G –9--9b11--7--------7----7-----7--9b11----9b11--b11--9--7-----7--
D ----------------9----------9------------------------------9-----
A ----------------------------------------------------------------
E ----------------------------------------------------------------


Gtr. 1 (x3)
e ----------12--13--15---------------------------12--15--13--12-------
B -------13-----------------------------------13-----------------13---
G --------------------------------------------------------------------
D --------------------------------------------------------------------
A --------------------------------------------------------------------
E --------------------------------------------------------------------

Gtr. 2 (x2)

e ---------------------------------------------------------------------
B ---------------------------------------------------------------------
G ---10b12--b12-------------------------10b12r10--9--10--12--10--9-----
D ------------------------------------------------------------------10-
A ---------------------------------------------------------------------
E ---------------------------------------------------------------------

Gtr. 2 (3rd time)

e ---------------------------------------------------------------------
B ---------------------------------------------------------------------
G ---10b12--b12------------------------10b12r10--9--10--9--------------
D ---------------------------------------------------------10----------
A ---------------------------------------------------------------------
E ---------------------------------------------------------------------

Song Progression:

Intro x4
Main Riff x10
Bridge & Lead x1
Main Riff x10
Bridge & Lead x1
Main Riff x4
Solo
Main Riff x10
Bridge & Lead x1
Main Riff x2
Bridge & Lead x1
Main Riff x2
Bridge & Lead x1
Main Riff x2
Bridge & Lead x1
Main Riff x2
Bridge & Lead x1
End Song
		   
AcordesyTabs.com © 2008 Acordes y Tablaturas para guitarra. Tabs and Chords for guitar. Aviso Legal - Contacto
El uso de este sitio está sujeto a la aceptación de los términos y condiciones (79 usuarios online)