tablaturas, partituras y acordes para guitarra
Busca por banda/artista:
 
y/o título de la canción:
A B C D E F G H I J K L M N O P Q R S T U V W X Y Z 0 1 2 3 4 5 6 7 8 9 / Top 100 tabs
Categorías
Usuarios
usuario:
Darse de alta
password:
Artistas más visitados
Publicidad
TOP acordes y tablaturas de Metallica


Estás en: Inicio > Letra M > Acordes y tablaturas de Metallica > Enter sandman no solo
Enter sandman no solo
de Metallica
Puntúa este acorde/tab:      
(0.6/5)
Reportar este acorde/tab
  Añadir a tus favoritos
  Imprimir

Tabs for 
"Enter Sandman"


Enter Sandman

written by Hetfield, Ulrich and Hammett

as performed on Metallica

tab by Phil Boyle; ibzrg470@apk.net





intro

D--------5-------------5----

A-----7--------7----7-------

E--0-------6-5---0-------6-5

clean



D----------------------------------

A--2--------------7---------------7

E--0--0-0-0-0-0-0---0-0-0-0-0-0-0--

 pm.......... .............

distorted



D-------------------

A------7-----------3

E--0-0---6-5-0-0-0-1

pm.. .......



Main riff

D---------------------------------------

A--2--2-/7------- 3 times----5-----4-----4-5-4-2

E--0--0----6--5~~-0--3--0--2--0--2-3-2-0



D-----------------

A--2-------------3twice then end with riff above^

E--0-0-0-0-0-0-0-1

pm..............

Say your prayers...



G--------2--------------2------

D-----4--------4-----4--------4

A----------3-2------------3-2--

E--2--------------2------------

Sleep with one eye...



D------5--4-----5--4-----5--4---

A---4--3--2--4--3--2--4--3--2--2

E--/2--------2--------2--------0

Exit light



 




		   
AcordesyTabs.com © 2008 Acordes y Tablaturas para guitarra. Tabs and Chords for guitar. Aviso Legal - Contacto
El uso de este sitio está sujeto a la aceptación de los términos y condiciones (28 usuarios online)