tablaturas, partituras y acordes para guitarra
Busca por banda/artista:
 
y/o título de la canción:
A B C D E F G H I J K L M N O P Q R S T U V W X Y Z 0 1 2 3 4 5 6 7 8 9 / Top 100 tabs
Categorías
Usuarios
usuario:
Darse de alta
password:
Artistas más visitados
Publicidad
TOP acordes y tablaturas de Dire Straits


Estás en: Inicio > Letra D > Acordes y tablaturas de Dire Straits > Romeo And Juliet 2
Romeo And Juliet 2
de Dire Straits
Puntúa este acorde/tab:      
(0.7/5)
Reportar este acorde/tab
  Añadir a tus favoritos
  Imprimir
Song: Romeo & Juliet - Intro
Band: Dire Straits 
Album: Making Movies
Tabbed by Mike Peppit (mikepeppit@hotmail.com) 1/4/02
Capo must be on the third fret. Therefore third fret is played as an open string

I think this is pretty close to the real thing, give or take a few notes and it'

| 5----------5-------------- 3-----------------------------------------3---5----
| 6-------6- --6-------6-6--------5--- 6------ --6--------6-6----5h6------------
| 5----5---- ----5-----5-5-- ---5-- -5---------5---5------5-5-------------------
| ---7-----------------7-7----------------- -7-------7----7-7-----------------7-
| -----------------------------------------5------------------------------------
| ------------------------------------------------------------------------------

| --------5---3-----------------------------------------------------------------
| ------6--------5 ---6---------6-----------6--------5--------------------------
| ----5------------5----------5---5---------5---5----5--------------------------
| --7----------------------7--------7-------7--------7--------------------------
| 3----------------------5------------------5--------5--------------------------
| ------------------------------------------------------------------------------

Rest of band comes in:

| 5-----------5-------------- -3----------------------------------5---3---5-----
| 6--------6- --6--------6-6--------5---6------ ---6--------6-6-----------------
| 5------5---- ----5-----5-5-- ---5-- 5----------5---5------5-5-----------------
| -----7-----------------7-7----------------- 7--------7----7-7-----------------
| -----------------------------------------5------------------------------------
| ------------------------------------------------------------------------------

| --------5---3----------------------------------------------5------------------
| ------6---------5 ---6---------6------------6--------5-----6------------------
| ----5--------------5---------5----5---------5---5----5-----5--A love struck Ro
| --7------------------------7---------7------7--------7-----7------------------
| 3------------------------5------------------5--------5------------------------
| ------------------------------------------------------------------------------

See other tabs for chords and the rest of the song.
		   
AcordesyTabs.com © 2008 Acordes y Tablaturas para guitarra. Tabs and Chords for guitar. Aviso Legal - Contacto
El uso de este sitio está sujeto a la aceptación de los términos y condiciones (17 usuarios online)