tablaturas, partituras y acordes para guitarra
Busca por banda/artista:
 
y/o título de la canción:
A B C D E F G H I J K L M N O P Q R S T U V W X Y Z 0 1 2 3 4 5 6 7 8 9 / Top 100 tabs
Categorías
Usuarios
usuario:
Darse de alta
password:
Artistas más visitados
Publicidad
TOP acordes y tablaturas de los Tres


Estás en: Inicio > Letra l > Acordes y tablaturas de los Tres > la Espada & la Pared
la Espada & la Pared
de los Tres
Puntúa este acorde/tab:      
(0.3/5)
Reportar este acorde/tab
  Añadir a tus favoritos
  Imprimir
Los tres(unplugged): La espada y la pared
transcription: Boris Chilan

A friend of mine gave me a cd from Los tres and i liked this song.
so enjoy it!!..


Intro:

mute with your palm and make fast:
e:-10-9-7-5-4-0---3-2-1-0------



Intro II:

e:-10-10-9--b7-b7-0
B:-12-12-10-b8-b8-0
G:-----------------

e:-10-10-9--7-0
B:-12-12-10-8-0
G:-------------

Verse I:
E
habla sin pensar
defensa sin hablar
servicio militar 
muerte cerebral
cerrar sin abrir
una sonda feliz 
deja todo nuestro fin

(intro II)


Verse II:
E
tirar sin lanzar 
aun no llega el dolor
y eso es lo peor
muerto vivo mejor
tirar sin lanzar 
aun no llega el dolor
y eso es lo peor
muerto vivo mejor

A ?
(intro II)

Verse III:
E
triangulo de amor
bermuda del dolor
disparo al corazon
burbuja de terror
caida sin saltar
estruendo sin igual
palabras al pasar
no hay forma de frenar
sexo sin mirar
mi almohada puede mas
que todo tu amor
que vive en mi bolson
la saliba va
la salida viene atras
corte cerebral 
el principio es al final


bridge:
A
consome 
deja ya un pastel
dulce miel de telarania
consome
dulce miel
D 	A	B
lo endulza sin picar

D F#m Bm D G C Bm A



chorus:
D 	F#m	Bm  D
la espada y la pared
G	C	Bm	A
me atraviesan y no al reves

D 	F#m	Bm  D
la espada y la pared
G	C	Bm	A
me atraviesan y no al reves

(intro II)
repeat just some:
B:-----5
G:-7/9--

Verse III:
E
triangulo de amor
bermuda del dolor
disparo al corazon
burbuja de terror
caida sin saltar
estruendo sin igual
palabras al pasar
no hay forma de frenar
sexo sin mirar
mi almohada puede mas
que todo tu amor
que vive en mi bolson
la saliba va
la salida viene atras
corte cerebral 
el principio es al final

solo:
2x:
e:------------------------b7-b7-b7-b7
B:-----5-----5-----5------b8-b8-b8-b8
G:-7/9---7/9---7/9---7/9--------------
D:------------------------------------

then:
e:---------------------------
B:--10-8---10-8--------------
G:-------9------9---9-8-7-4--
D:--------------------------5~~

e:------------------------------------
B:---------------------5------5------5
G:------5-7-7p5-7p5-7/9----7/9---7/9--
D:--5-7-------------------------------

e:-10-9--7-5-4-3---7/13-13-12-11-10-9---------
B:-12-10-9-7-5-5---9/15-15-13-13-12-10--------
G:--------------------------------------------
D:--------------------------------------------
A:---------------------------------------0-2-4
E:--------------------------------------------

D F#m Bm D G C Bm A

chorus:
D 	F#m	Bm  D
la espada y la pared
G	C	Bm	A
me atraviesan y no al reves

D 	F#m	Bm  D
la espada y la pared
G	C	Bm	A
me atraviesan y no al reves

D F#m Bm D G C Bm A

D 	F#m	Bm  D
la espada y la pared
G	C	Bm	A
me atraviesan y no al reves

D 	F#m	Bm  D
la espada y la pared
G	C	Bm	A
me atraviesan y no al reves

D F#m Bm D G C Bm A
fading.....many claps!!!!

any corrections or aditions email me: bchilan@gye.satnet.net
		   
AcordesyTabs.com © 2008 Acordes y Tablaturas para guitarra. Tabs and Chords for guitar. Aviso Legal - Contacto
El uso de este sitio está sujeto a la aceptación de los términos y condiciones (11 usuarios online)