tablaturas, partituras y acordes para guitarra
Busca por banda/artista:
 
y/o título de la canción:
A B C D E F G H I J K L M N O P Q R S T U V W X Y Z 0 1 2 3 4 5 6 7 8 9 / Top 100 tabs
Categorías
Usuarios
usuario:
Darse de alta
password:
Artistas más visitados
Publicidad
TOP acordes y tablaturas de Bulldog
:: 3D - Bulldog


Estás en: Inicio > Letra B > Acordes y tablaturas de Bulldog > La estrella del bien y del mal
La estrella del bien y del mal
de Bulldog
Puntúa este acorde/tab:      
(0.4/5)
Reportar este acorde/tab
  Añadir a tus favoritos
  Imprimir
Intro

e|------------------------------------2h3h3-|
B|--------------------0--0----1h3h1---------|
G|-----4-4----4-4-------------------2-------|
D|------5------5-------2----2------0--------|
A|-------------------------3----------------|
E|-333----222-----000-----------------------|
    G    G/F#       E-      C       D


G    G/F#       E-      C       D

El cielo es rojo con mis ojos
la estrella del bien y del mal
atrincherarse no es seguro
el ataque es mejor defensa

e|-------------------------------|
B|-------------------------------|
G|-------------------55555-77777-|
D|-55555-55555-22222-55555-77777-|
A|-55555-55555-22222-33333-55555-|
E|-33333-22222-00000-------------|
     G   G/F#    E-     C     D


Con P.M.

Y apasionado por gritarlo
que ya vendrá un tiempo mejor
quedarse quieto no es bueno
si no hay intento no hay solución

Sin P.M. + Intro en 2da.

En un pueblito alejado
de seguro viviría mejor
sin tanto ruido a mis costados
conociendo mi paz interior

Con P.M.

Caminaría por los bosques
si el hombre lobo no está ahi
verde es el campo de los sueños
del que nadie se quiere ir.

Puente:

e|-------------------------------------------------|
B|-------------------------8---8-------------------|
G|------------------------7---7--------------------|
D|-999-7-9--5---777-5-7--5---4---999-7-9--5---7777-|
A|-777-5-7--3---555-3-5----------777-5-7--3---5555-|
E|-------------------------------------------------|
    E  D E  C   D   C D  G  G/F#  E  D E  C  D(p.m.)

Sin P.M. + Intro en 2da.

Con mi guitarra avivo el fuego
arde la llama del rock and roll
rompo los vidrios de este cielo
a ver si se despierta este dios

Con P.M.

camino al borde del abismo
no tengo miedo me siento mejor
voy en busca de mi destino
en tu mirada reflejado estoy

e|-------------------------------|
B|-------------------------8---8-| 
G|------------------------7---7--| [x2]
D|-999-7-9--5---777-5-5--5---4---|
A|-777-5-7--3---555-3-5----------|
E|-------------------------------|

e|-------------------------------------*--|
B|-------------------------------------*--| 
G|-------------------------------------*--|
D|-999-7-9--5---777-5-5--121212-121212-9--|
A|-777-5-7--3---555-3-5--101010--9 9 9-7--|
E|-------------------------------------*--|

2da.

e|-*------------------------------|
B|-*------------------------------|
G|-*-11b11-9-7--------------------|
D|-*----------10-9-10--11-9-10-11-|
A|-*------------------------------|
E|-*------------------------------|

Larailalaila ...

e|----------------------------------------------------|
B|----------------------------------------------------|
G|-----15-13-12--15-13-12-----9p11h12h9p11h12h9p11h12-|
D|-9/12--------12--------12-12------------------------|
A|----------------------------------------------------|
E|----------------------------------------------------|

e|-----------------------------------------------------|
B|-----------------------------------------------------|
G|-----15-13-12--15-13-12-----9p11h12h9p11h12h9p11h12--|
D|-9/12--------12--------12-12-------------------------|
A|-----------------------------------------------------|
E|-----------------------------------------------------|

Ahi tienen una idea de como es el tema...
		   
AcordesyTabs.com © 2008 Acordes y Tablaturas para guitarra. Tabs and Chords for guitar. Aviso Legal - Contacto
El uso de este sitio está sujeto a la aceptación de los términos y condiciones (17 usuarios online)