tablaturas, partituras y acordes para guitarra
Busca por banda/artista:
 
y/o título de la canción:
A B C D E F G H I J K L M N O P Q R S T U V W X Y Z 0 1 2 3 4 5 6 7 8 9 / Top 100 tabs
Categorías
Usuarios
usuario:
Darse de alta
password:
Artistas más visitados
Publicidad
TOP acordes y tablaturas de Jaguares


Estás en: Inicio > Letra J > Acordes y tablaturas de Jaguares > el Milagro
el Milagro
de Jaguares
Puntúa este acorde/tab:      
(0.8/5)
Reportar este acorde/tab
  Añadir a tus favoritos
  Imprimir
Esta cancion es en vivo escucha el disco para que le entiendas
Esta cancion es una de las mas perronas y nadie habia mandado nada. 
esto lo toca el vampiro saul toca acordes

      intro
e -------------12-----------12-------------------------
b -----------11--11-------11--11-----------------------
g ------------------13b~--------13b~--11~-11b~--12b~---
d -----11-12--------------------------10~--------------
a 11-12------------------------------------------------
E -----------------------------------------------------


e -------------12-----------12-------------------------
b -----------11--11-------11--11-----------------------
g ------------------13b~--------13b~---12~--12b~------
d -----11-12---------------------------11~------------
a 11-12------------------------------------------------
E -----------------------------------------------------


      El milagro es una luz
      una hogera es mi trinchera

Aqui el vampiro toca un acorde muy raro que es este

e --0~-----
b --4~-----           Lo dejas hasta que se acabe el   
g --4~-----      sonido haciendole un bend a todo el
d --0~-----       acorde,de preferencia toca el acorde 
a --4~-----      de la sexta a la primera
E --4~-----

       Una esponja tu mano 
       mi deseo tu cuerpo
e --0~-------
b --2~-(2)---         La dejas sonar y de preferencia 
g --2~-(2)---      la tocas de abajo hacia arriba
d --0~-------     cuando toques el acorde sueltas todas
a --2~-------     las cuerdas menos b y g 
E --2~-------


 Cuando empieza mas rapido 
    Es la conciencia es una lagrima etc.

e -----------
b -----------
g ---/9---7/8----5/6--4---
d ------7------5--------2--
a -----------
E -----------



  Luego 

  Es una hiena

e -----------
b --2h3p2-----       varias veces como 5
g -----------
d -----------
a -----------
E -----------

   Es una rosa

e -----------
b --2h5p4p3--        varias veces hasle con los cuatro 
g -----------     dedos y rapido
d -----------
a -----------
E -----------

  Es un milagro poderte querer

e -----------------------------
b ---2-------------------------------17-16--
g -----5-3-2-3~----12-13-14-15-16-17-------
d -----------------------------
a -----------------------------
E -----------



   Es luna llena

e -----------
b --2h5p4p3--        varias veces hasle con los cuatro 
g -----------     dedos y rapido
d -----------
a -----------
E -----------

   Y no te afecta

e -----------
b --2h3p2-----       varias veces como 5
g -----------
d -----------
a -----------
E -----------

   Es un milagro poderte querer

e -----------------------------------------
b ---2-------------17-16-15-14-13-12-11-12-
g -----5-3-2-3~----------------------------
d -----------------------------------------
a -----------------------------
E -----------

intro


luego despues cuando cantan hahahahahahah

Harris toca

e ----------------------
b ----------------------
g -----20-21------
d --19--------------------
a ----------------------
E -----------
que lo toca como 3 o 4 veces 
y cuando acaba

el vampiro toca

e ----------------------
b -----------------------
g -----------------------
d ----9bb------------------- toca la cuerda como 6 
a -----------------------    veces haciendole un bend
E -----------------------    muy chingon


y el ultimo mini solo para acabar la cancion es

e ----------------------
b -----------------------
g --9/10--10-10-10-11-10-11-10-11-10-11-----
d ----------------------- 
a -----------------------    
E -----------------------    

e ----------------------
b -----------------------
g -11-11-11-11/12-12-13-12-13-12-13-12-13--
d -----------------------  
a -----------------------    
E -----------------------    

e ----------------------
b ------------------------18
g --------------------18------
d --------------16-17-------
a --12-13-14-15-----------------
E -----------
		   
AcordesyTabs.com © 2008 Acordes y Tablaturas para guitarra. Tabs and Chords for guitar. Aviso Legal - Contacto
El uso de este sitio está sujeto a la aceptación de los términos y condiciones (35 usuarios online)