tablaturas, partituras y acordes para guitarra
Busca por banda/artista:
 
y/o título de la canción:
A B C D E F G H I J K L M N O P Q R S T U V W X Y Z 0 1 2 3 4 5 6 7 8 9 / Top 100 tabs
Categorías
Usuarios
usuario:
Darse de alta
password:
Artistas más visitados
Publicidad
TOP acordes y tablaturas de Leño


La Fina
de Leño
Puntúa este acorde/tab:      
(0.4/5)
Reportar este acorde/tab
  Añadir a tus favoritos
  Imprimir
Leño: La fina
-------------
                                              
Intro:
------
  E7             A             x2   B                 E6
|---------------------------------|------------------------------------|
|-----3-3-3-3-3-------------------|------------------------------------|
|-----1-1-1-1-1------2-2-----2-2--|------------------------------------|
|--------------------4-2-----4-2--|-4-4-6-4-4-4-6-4---9-9-9-9-9-9-9-9--|
|----------------0-0-----0-0------|-2-2-2-2-2-2-2-2---7-7-7-7-7-7-7-7--|
|-0-0-----------------------------|------------------------------------|

Estrofa:
--------
E7                      A7
Vas consumiendo el camino
E7                     A7
vas conociendo el percal
E7                        A7
vuelves desde el caño al coro
B7                      E
y llegas a divino sin examen preescolar.

Solo1:
------
  E7                A7
|-------------------------------------------------------|
|---3-3-3-3-3-3-2h3-2p0---------------------------------|
|---4-4-4-4-4-4---------2p0-2p0-----2br-0---2p0---------|
|-------------------------------2p0-------2-----2p0-----|
|-------------------------------------------------------|
|-0-----------------------------------------------------|

  E7                A7
|-----------------------------------------------3p2p0---------|
|---3-3-3-3-3-3-2h3-2p0-------------------3p2p0--------3p2p0--|
|---4-4-4-4-4-4---------2p0-2p0-----4p2p0---------------------|
|-------------------------------2p0---------------------------|
|-------------------------------------------------------------|
|-0-----------------------------------------------------------|

  E7              A7                              B7                  E7
|-----------------------------------------------------------------------|
|-3-3-3-3-3-3-3-3-2p0h2p0h2p0h2p0-2br-0---2p0---------------------------|
|-4-4-4-4-4-4-4-4-----------------------2-----2p0---------2---4b-2------|
|--------------------------------------------------2h4-4-4--4------2h4--|
|-----------------------------------------------------------------------|
|-0---------------------------------------------------------------------|

Solo2:
------
  E7           A7                      E7           A7
|---4-4-4-4-4------3---------------------4-4-4-4-4------3------|
|---3-3-3-3-3----2---2-3p2-0-------------3-3-3-3-3----2---2----|
|---4-4-4-4-4--2-------------2-4p2-0-----4-4-4-4-4--2-------2--|
|--------------2---------------------2--------------2----------|
|--------------0------------------------------------0----------|
|-0-------------------------------------0----------------------|

  E7           A7                      E7           A7                    E
|---4-4-4-4-4------3---------------------4-4-4-4-4------3-------------------|
|---3-3-3-3-3----2---2-3p2-0-------------3-3-3-3-3----2---2-----------------|
|---4-4-4-4-4--2-------------2-4p2-0-----4-4-4-4-4--2-------4-2p0---2p0-----|
|--------------2---------------------2--------------2-------------2-----2p0-|
|--------------0------------------------------------0-----------------------|
|-0-------------------------------------0-----------------------------------|

Letra:
------
Vas consumiendo el camino
vas conociendo el percal
vuelves desde el caño al coro
y llegas a divino sin examen preescolar.

Hoy conoci a una chiquita
mona o foca daba igual
solo salio de su boca
me llaman la finita y no soy fina ni ná.

Ya puedes imaginarte
como me lo iba a montar
de no ser porque finita
tempranoa su casita debria llegar

Esta pues la cosa clara
ya no te puedes fiar
no era fina sino estrecha
pon otra cerveza que a la proxima ira

Louro´04
		   
AcordesyTabs.com © 2008 Acordes y Tablaturas para guitarra. Tabs and Chords for guitar. Aviso Legal - Contacto
El uso de este sitio está sujeto a la aceptación de los términos y condiciones (21 usuarios online)