tablaturas, partituras y acordes para guitarra
Busca por banda/artista:
 
y/o título de la canción:
A B C D E F G H I J K L M N O P Q R S T U V W X Y Z 0 1 2 3 4 5 6 7 8 9 / Top 100 tabs
Categorías
Usuarios
usuario:
Darse de alta
password:
Artistas más visitados
Publicidad
TOP acordes y tablaturas de Leño


La Fina
de Leño
Puntúa este acorde/tab:      
(0.5/5)
Reportar este acorde/tab
  Añadir a tus favoritos
  Imprimir
+ Tabulados de made in spain!                   +
+ (http://mades.kaos.es)                        +
+++++++++++++++++++++++++++++++++++++++++++++++++

Transcripcion by Paco Harding Mastropiero.

.... ESTO ES LA INTRO.

  E      E7       A                      
        ------	
e:---------------------------------------------------------------|
B:----H3-3-3-3----3-2--0--------23/2--0-----2--0-----------H3---|
G:-1-----1-1-1-1--1-2----2-0----23/2--0--1--2--0--1-----1-------|
D:-2-----2-2-2-2--2-2--------2--23/2--0--2--2--0--2--0--2-------|
A:-2-----2-2-2-2--2-----------------------2--------2--0--2-------|
E:---------------------------------------------------------------|


e:------------------------------------------------3--2--0------------|
B:----H3-3-3-3----3-2--0-----------------3--2--0-----------3--2--0---|
G:-1-----1-1-1-1--1-2----2-0----4--2--0------------------------------|
D:-2-----2-2-2-2--2-2--------2---------------------------------------|
A:-2-----2-2-2-2--2--------------------------------------------------|
E:-------------------------------------------------------------------|
 								    B	
                                 				---------
e:--------------------------------------------------------------2--2--2--2---|
B:----H3-3-3-3----3-2--0----------------------------------------4--4--4--4---|
G:-1-----1-1-1-1--1-2----2-0-------2-2-2-2--------2H4--2--------4--4--4--4---|
D:-2-----2-2-2-2--2-2--------2--4-----------4--4----------2--4--4--4--4--4---|
A:-2-----2-2-2-2--2---------------------------------------------2--2--2--2---|
E:--------------------------------------------------------------2--2--2--2---|





... Y ESTOS SON LOS ACORDES

    E    	             A
	Estoy subiendo el camino
    E    	             A
	desconociendo el percal
    E    	                  A
	vuelves desde el caño al coro
    B    	             E
	llegas a adivino sin examen preescolar
    E    	             A
	hoy concí a una chiquita
    E    	             A
	mona o foca daba igual
    E    	         A
	solo salió de su boca
    B    	                  E
	me llaman la finita y no soy fina ni ná

    E    	        A
	Ya Puedes imaginarte
    E    	             A
	como me lo iba a montar
    E    	             A
	de no ser por que finita
    B    	                  E
	temprano a su casíta debería regresar
    E    	            A
	esta pues la cosa clara
    E    	          A
	ya no te puedes fiar
    E    	             A
	no era fina sino estrecha 
    B    	                    E
	pon otra cerveza que a la proxima será.


	yAdisfrutarlaochequelavidasoncuatrodias.
        Agradeceré cualquier comentario.
	harding@arrakis.es
		   
AcordesyTabs.com © 2008 Acordes y Tablaturas para guitarra. Tabs and Chords for guitar. Aviso Legal - Contacto
El uso de este sitio está sujeto a la aceptación de los términos y condiciones (39 usuarios online)