tablaturas, partituras y acordes para guitarra
Busca por banda/artista:
 
y/o título de la canción:
A B C D E F G H I J K L M N O P Q R S T U V W X Y Z 0 1 2 3 4 5 6 7 8 9 / Top 100 tabs
Categorías
Usuarios
usuario:
Darse de alta
password:
Artistas más visitados
Publicidad
TOP acordes y tablaturas de Disturbed


Prayer
de Disturbed
Puntúa este acorde/tab:      
(0.4/5)
Reportar este acorde/tab
  Añadir a tus favoritos
  Imprimir
N.C.(D5) 
 4/4 
  Gtr I 
|-----------||------------------------------------------| 
|-----------||o-----------------------------------------| 
|-----------||------------------------------------------| 
|-----------||------------------------------------------| 
|--------12-||o--12--12-12-12-12-12--12--12-12-12-12-15-| 
|---------0-||----0---0-13--0-13--0---0---0-13--0-13--0-| 
 
 
|-----------------------------------------| 
|-----------------------------------------| 
|-----------------------------------------| 
|-----------------------------------------| 
|--15--15-15-15-15-18--18--18-18-17-17-12-| 
|---0---0-13--0-13--0---0---0-13--0-13--0-| 
 
 
  1. 
|-----------------------------------------| 
|-----------------------------------------| 
|-----------------------------------------| 
|-----------------------------------------| 
|--12--12-12-12-12-12--12--12-12-12-12-15-| 
|---0---0-13--0-13--0---0---0-13--0-13--0-| 
 
 
                               Eb5C5XN.C.(D5)  
|----------------------------------------|| 
|---------------------------------------o|| 
|----------------------------------------|| 
|----------------------------------------|| 
|--15--15-15-15-15-18--18--18-13-10-12--o|| 
|---0---0-13--0-13--0---0---0-13-10--0---|| 
 
 
  2. 
|-----------------------------------------| 
|-----------------------------------------| 
|-----------------------------------------| 
|-----------------------------------------| 
|--12--12-12-12-12-12--12--12-12-12-12-15-| 
|---0---0-13--0-13--0---0---0-13--0-13--0-| 
 
 
                               Eb5C5XN.C.(D5)  
                                    PM 
|--------------------------------------|| 
|--------------------------------------|| 
|--------------------------------------|| 
|--------------------------------------|| 
|--15--15-15-15-15-18--18--18-13-10----|| 
|---0---0-13--0-13--0---0---0-13-10-0--|| 
 
 
 1st Verse 
---M------------------------------------------------------| 
|-----------------------------|-----------------------------| 
|-----------------------------|-----------------------------| 
|-----------------------------|-----------------------------| 
|-----------------------------|-----------------------------| 
|-----------------------------|-----------------------------| 
|--0--0-0-0-0-0--0--0-0-0-0-0-|--0--0-0-0-0-0--0--0-0-0-0-0-| 
 
 
                                                     Eb5C5XN.C.(D5)  
---M----------------------------------------------|       PM- 
|-----------------------------|-----------------------------| 
|-----------------------------|-----------------------------| 
|-----------------------------|-----------------------------| 
|-----------------------------|-----------------------------| 
|-----------------------------|---------------------13-10---| 
|--0--0-0-0-0-0--0--0-0-0-0-0-|--0--0-0-0-0-0--0--0-13-10-0-| 
 
 
 ---------------------------| 
|------------------------------| 
|------------------------------| 
|------------------------------| 
|------------------------------| 
|------------------------------| 
|--0--0-0-0-0-0--0--0-0-0-0-0--| 
 
 
---M--------------------------------------------------------- 
|-----------------------------|-----------------------------| 
|-----------------------------|-----------------------------| 
|-----------------------------|-----------------------------| 
|-----------------------------|-----------------------------| 
|-----------------------------|-----------------------------| 
|--0--0-0-0-0-0--0--0-0-0-0-0-|--0--0-0-0-0-0--0--0-0-0-0-0-| 
 
 
                       Eb5C5XI  
 -------------------| 
|-----------------------------|| 
|-----------------------------|| 
|-----------------------------|| 
|-----------------------------|| 
|---------------------13-10---|| 
|--0--0-0-0-0-0--0--0-13-10---|| 
 
 
 Pre-chorus 
  $ 
   A5         Eb5       F5Bb5  
|--------------------------| 
|--------------------------| 
|--------------------------| 
|-7-(7)-x-x-1-1--1--1-3-8-| 
|-7-(7)-x-x-1-1--1--1-3-8-| 
|-7-(7)-x-x-1-1--1--1-3-8-| 
 
 
   A5         Eb5       F5Eb5 A5         Eb5       F5Bb5  
|--------------------------|---------------------------| 
|--------------------------|---------------------------| 
|--------------------------|---------------------------| 
|-7-(7)-x-x-1-1--1--1-3-1-|-7-(7)-x-x-1-1--1--1-3-8--| 
|-7-(7)-x-x-1-1--1--1-3-1-|-7-(7)-x-x-1-1--1--1-3-8--| 
|-7-(7)-x-x-1-1--1--1-3-1-|-7-(7)-x-x-1-1--1--1-3-8--| 
 
 
                           1st and 2nd Choruses 
   A5         F5(type  2)      Bbsus2  
|------------------------||-------------------------------| 
|------------------------||-------------------------------| 
|------------5-(5)--5----||-------------------------------| 
|-7-(7)-x-x-3-(3)--3-10-||-10-10-(10)-10-(10)-10-10-x-x-| 
|-7-(7)-x-x-3-(3)--3--8-||--8--8--(8)--8--(8)--8--8-x-x-| 
|-7-(7)-x-x-3-(3)--3----||--8--8--(8)--8--(8)--8--8-x-x-| 
 
 
   F5(type G5            F5(type  2) 
|---------------------------| 
|---------------------------| 
|-5-5-(5)-7-(7)-7-7-7-7s5-5-| 
|-3-3-(3)-5-(5)-5-5-5-5s3-3-| 
|-3-3-(3)-5-(5)-5-5-5-5s3-3-| 
|-3-3-(3)-5-(5)-5-5-5-5s3-3-| 
 
 
    BbBbsus2                  Dsus2  
|----------------------------------| 
|----------------------------------| 
|----------------------------------| 
|-----10-(10)-10-(10)-10-10/-14-14-| 
|-3s8--8--(8)--8--(8)--8--8/-12-12-| 
|-3s8--8--(8)--8--(8)--8--8/-12-12-| 
 
 
      D5XII   C5X              Csus2      Bbsus2  
|--------------------------------------|-------------------------------| 
|--------------------------------------|-------------------------------| 
|--------------------------------------|-------------------------------| 
|-14-12-(12)-10-(10)-10-10-10-12-12-12-|-10-10-(10)-10-(10)-10-10-x-x--| 
|-12-12-(12)-10-(10)-10-10-10-10-10-10-|--8--8--(8)--8--(8)--8--8-x-x--| 
|-12-12-(12)-10-(10)-10-10-10-10-10-10-|--8--8--(8)--8--(8)--8--8-x-x--| 
 
 
   F5(type G5            F5(type  2)BbBbsus2                  Dsus2  
|-----------------------------|----------------------------------| 
|-----------------------------|----------------------------------| 
|-5-5-(5)-7-(7)-7-7-7-7s5-5-5-|----------------------------------| 
|-3-3-(3)-5-(5)-5-5-5-5s3-3-3-|-----10-(10)-10-(10)-10-10/-14-14-| 
|-3-3-(3)-5-(5)-5-5-5-5s3-3-3-|-3s8--8--(8)--8--(8)--8--8/-12-12-| 
|-3-3-(3)-5-(5)-5-5-5-5s3-3-3-|-3s8--8--(8)--8--(8)--8--8/-12-12-| 
 
 
      D5XII   C5X              Csus2    Bb5  
|----------------------------------------| 
|----------------------------------------| 
|----------------------------------------| 
|-14-12-(12)-10-(10)-10-10-10-12-12-12-8-| 
|-12-12-(12)-10-(10)-10-10-10-10-10-10-8-| 
|-12-12-(12)-10-(10)-10-10-10-10-10-10-8-| 
 
 
                       To Coda 
                                                          N.C. 
|-----------------------------|------------------------------| 
|-----------------------------|------------------------------| 
|-----------------------------|------------------------------| 
|--8--8-8-8-8-8--8--8-8-8-8-8-|--8--8-8-8-8-8--8--8-8-8-8----| 
|--8--8-8-8-8-8--8--8-8-8-8-8-|--8--8-8-8-8-8--8--8-8-8-8-12-| 
|--8--8-8-8-8-8--8--8-8-8-8-8-|--8--8-8-8-8-8--8--8-8-8-8--0-| 
 
 
|-----------------------------------------| 
|-----------------------------------------| 
|-----------------------------------------| 
|-----------------------------------------| 
|--12--12-12-12-12-12--12--12-12-12-12-15-| 
|---0---0-13--0-13--0---0---0-13--0-13--0-| 
 
 
|-----------------------------------------| 
|-----------------------------------------| 
|-----------------------------------------| 
|-----------------------------------------| 
|--15--15-15-15-15-18--18--18-18-17-17-12-| 
|---0---0-13--0-13--0---0---0-13--0-13--0-| 
 
 
|-----------------------------------------| 
|-----------------------------------------| 
|-----------------------------------------| 
|-----------------------------------------| 
|--12--12-12-12-12-12--12--12-12-12-12-15-| 
|---0---0-13--0-13--0---0---0-13--0-13--0-| 
 
 
                               Eb5C5XN.C.(D5)  
                                    PM 
|--------------------------------------|| 
|--------------------------------------|| 
|--------------------------------------|| 
|--------------------------------------|| 
|--15--15-15-15-15-18--18--18-13-10----|| 
|---0---0-13--0-13--0---0---0-13-10-0--|| 
 
 
 2nd Verse 
---M------------------------------------------------------| 
|-----------------------------|-----------------------------| 
|-----------------------------|-----------------------------| 
|-----------------------------|-----------------------------| 
|-----------------------------|-----------------------------| 
|-----------------------------|-----------------------------| 
|--0--0-0-0-0-0--0--0-0-0-0-0-|--0--0-0-0-0-0--0--0-0-0-0-0-| 
 
 
                                                     Eb5C5XN.C.(D5)  
---M----------------------------------------------|       PM- 
|-----------------------------|-----------------------------| 
|-----------------------------|-----------------------------| 
|-----------------------------|-----------------------------| 
|-----------------------------|-----------------------------| 
|-----------------------------|---------------------13-10---| 
|--0--0-0-0-0-0--0--0-0-0-0-0-|--0--0-0-0-0-0--0--0-13-10-0-| 
 
 
 ---------------------------| 
|------------------------------| 
|------------------------------| 
|------------------------------| 
|------------------------------| 
|------------------------------| 
|--0--0-0-0-0-0--0--0-0-0-0-0--| 
 
 
---M--------------------------- 
|-----------------------------| 
|-----------------------------| 
|-----------------------------| 
|-----------------------------| 
|-----------------------------| 
|--0--0-0-0-0-0--0--0-0-0-0-0-| 
 
 
                                        D.S. al Coda 
 ---------------------------------------------------| 
|-----------------------------|--------------------------|| 
|-----------------------------|--------------------------|| 
|-----------------------------|--------------------------|| 
|-----------------------------|--------------------------|| 
|-----------------------------|--------------------------|| 
|--0--0-0-0-0-0--0--0-0-0-0-0-|--0--0-0-0-0-0--0--0-0----|| 
 
 
  & 
    Bb5                        D5  
                                                      Gtr III 
                                                      TP 
|-----------------------------|------------|---------------| 
|-----------------------------|------------|---------------| 
|-----------------------------|------------|---------------| 
|--8--8-8-8-8-8--8--8-8-8-8-0-|-(0)--------|-(0)-----------| 
|--8--8-8-8-8-8--8--8-8-8-8-0-|-(0)--------|-(0)------x---| 
|--8--8-8-8-8-8--8--8-8-8-8-0-|-(0)--------|-(0)------x---| 
 
 
 Interlude 
  N.C.(E5) 
  Gtr I 
|---------------------------|--------------------| 
|---------------------------|--------------------| 
|---------------------------|--------------------| 
|---------------------------|--------------------| 
|---------------------------|--------------------| 
|-2-2-0-2--2-2-0-2--0-2-0-2-|--2--0-2--2--0-2--3-| 
 
 
                                         Fsus2  
                                        PM------| 
|---------------------------|----------------------|| 
|---------------------------|----------------------|| 
|---------------------------|----------------------|| 
|---------------------------|-----------5-5-(5)-5--|| 
|---------------------------|-----------3-3-(3)-3--|| 
|-2-2-0-2--2-2-0-2--0-2-0-2-|--2-2-0-2--3-3-(3)-3--|| 
 
 
   Bridge 
     E5  D5E5     D5E5 D5E5D5E5      D5E5    D5E5 Fsus2  
||----------------------------|---------------------| 
||o---------------------------|---------------------| 
||----------------------------|---------------------| 
||----------------------------|------------------5--| 
||o-2-2-0-2--2-2-0-2--0-2-0-2-|--2--0-2--2--0-2--3--| 
||--2-2-0-2--2-2-0-2--0-2-0-2-|--2--0-2--2--0-2--3--| 
 
 
   E5  D5E5     D5E5 D5E5D5E5       D5E5 Fsus2  
|---------------------------|----------------------|| 
|---------------------------|---------------------o|| 
|---------------------------|----------------------|| 
|---------------------------|-----------5-5-(5)-5--|| 
|-2-2-0-2--2-2-0-2--0-2-0-2-|--2-2-0-2--3-3-(3)-3-o|| 
|-2-2-0-2--2-2-0-2--0-2-0-2-|--2-2-0-2--3-3-(3)-3--|| 
 
 
 3rd Chorus 
   Bbsus2                            F5(type G5V           F5(type  2) 
|-------------------------------|---------------------------| 
|-------------------------------|---------------------------| 
|-------------------------------|-5-5-(5)-7-(7)-7-7-7-7s5-5-| 
|-10-10-(10)-10-(10)-10-10-x-x-|-3-3-(3)-5-(5)-5-5-5-5s3-3-| 
|--8--8--(8)--8--(8)--8--8-x-x-|-3-3-(3)-5-(5)-5-5-5-5s3-3-| 
|--8--8--(8)--8--(8)--8--8-x-x-|-3-3-(3)-5-(5)-5-5-5-5s3-3-| 
 
 
    BbBbsus2                  Dsus2  
|----------------------------------| 
|----------------------------------| 
|----------------------------------| 
|-----10-(10)-10-(10)-10-10/-14-14-| 
|-3s8--8--(8)--8--(8)--8--8/-12-12-| 
|-3s8--8--(8)--8--(8)--8--8/-12-12-| 
 
 
      D5XII   C5X              Csus2      Bbsus2  
|--------------------------------------|-------------------------------| 
|--------------------------------------|-------------------------------| 
|--------------------------------------|-------------------------------| 
|-14-12-(12)-10-(10)-10-10-10-12-12-12-|-10-10-(10)-10-(10)-10-10-x-x--| 
|-12-12-(12)-10-(10)-10-10-10-10-10-10-|--8--8--(8)--8--(8)--8--8-x-x--| 
|-12-12-(12)-10-(10)-10-10-10-10-10-10-|--8--8--(8)--8--(8)--8--8-x-x--| 
 
 
   F5(type G5            F5(type  2)BbBbsus2                  Dsus2  
|-----------------------------|----------------------------------| 
|-----------------------------|----------------------------------| 
|-5-5-(5)-7-(7)-7-7-7-7s5-5-5-|----------------------------------| 
|-3-3-(3)-5-(5)-5-5-5-5s3-3-3-|-----10-(10)-10-(10)-10-10/-14-14-| 
|-3-3-(3)-5-(5)-5-5-5-5s3-3-3-|-3s8--8--(8)--8--(8)--8--8/-12-12-| 
|-3-3-(3)-5-(5)-5-5-5-5s3-3-3-|-3s8--8--(8)--8--(8)--8--8/-12-12-| 
 
 
      D5XII   C5X              Csus2  
|-------------------------------------------| 
|-------------------------------------------| 
|-------------------------------------------| 
|-14-12-(12)-10-(10)-10-10-10-12-12-12-(12)-| 
|-12-12-(12)-10-(10)-10-10-10-10-10-10-(10)-| 
|-12-12-(12)-10-(10)-10-10-10-10-10-10-(10)-| 
 
 
   Bb5                                    F5         G5                  F5  
  Gtr II 
|------------------------------------|---------------------------------------| 
|-10-11-(11)---10-(10)-11-----10-----|-10-11-(11)-10-(10)-13-13-13-10---13---| 
|--------------------------------10--|---------------------------------------| 
|------------------------------------|---------------------------------------| 
|------------------------------------|---------------------------------------| 
|------------------------------------|---------------------------------------| 
| 
| Gtr I 
|         PM-|          PM--|                              PM---| 
|------------------------------------|---------------------------------------| 
|------------------------------------|---------------------------------------| 
|------------------------------------|---------------------------------------| 
|--8--8---8--8--8--(8)--8-8-8--8--8-|--3--3--(3)--5--(5)--5--5--5--5s3--3-3-| 
|--8--8---8--8--8--(8)--8-8-8--8--8-|--3--3--(3)--5--(5)--5--5--5--5s3--3-3-| 
|--8--8---8--8--8--(8)--8-8-8--8--8-|--3--3--(3)--5--(5)--5--5--5--5s3--3-3-| 
 
 
        Bb5  
||--------------------------------------| 
||o-10---11-(11)---10-(10)-11-----10----| 
||-----------------------------------10-| 
||--------------------------------------| 
||o-------------------------------------| 
||--------------------------------------| 
| 
|             PM-|            PM| 
||--------------------------------------| 
||o-------------------------------------| 
||--------------------------------------| 
||---3s8--8---8--8--8--(8)--8-8-8--8--8-| 
||o--3s8--8---8--8--8--(8)--8-8-8--8--8-| 
||---3s8--8---8--8--8--(8)--8-8-8--8--8-| 
 
 
   F5         G5                  F5  
|----------------------------------------|| 
|-10-11-(11)-10-(10)-13-13-13-10---13---o|| 
|----------------------------------------|| 
|----------------------------------------|| 
|---------------------------------------o|| 
|----------------------------------------|| 
| 
|                        PM| 
|----------------------------------------|| 
|---------------------------------------o|| 
|----------------------------------------|| 
|--3--3--(3)--5--(5)--5--5--5--5s3--3-3--|| 
|--3--3--(3)--5--(5)--5--5--5--5s3--3-3-o|| 
|--3--3--(3)--5--(5)--5--5--5--5s3--3-3--|| 
 
 
      Bb5  
|-------------------------------------| 
|-10---11-(11)---10-(10)-11-----10----| 
|----------------------------------10-| 
|-------------------------------------| 
|-------------------------------------| 
|-------------------------------------| 
| 
|           PM-|            PM| 
|-------------------------------------| 
|-------------------------------------| 
|-------------------------------------| 
|--3s8--8---8--8--8--(8)--8-8-8--8--8-| 
|--3s8--8---8--8--8--(8)--8-8-8--8--8-| 
|--3s8--8---8--8--8--(8)--8-8-8--8--8-| 
 
 
                                           Outro 
   F5         G5V                 F5    Bb5  
|----------------------------------------||-------------------------------| 
|-10-11-(11)-10-(10)-13-13-13-10---13----||-------------------------------| 
|----------------------------------------||-------------------------------| 
|----------------------------------------||-------------------------------| 
|----------------------------------------||-------------------------------| 
|----------------------------------------||-------------------------------| 
| 
|                        PM| 
|----------------------------------------||-------------------------------| 
|----------------------------------------||-------------------------------| 
|----------------------------------------||-------------------------------| 
|--3--3--(3)--5--(5)--5--5--5--5s3--3/-8-||--8--8-8-8-8-8--8--8-8-8-8-8---| 
|--3--3--(3)--5--(5)--5--5--5--5s3--3/-8-||--8--8-8-8-8-8--8--8-8-8-8-8---| 
|--3--3--(3)--5--(5)--5--5--5--5s3--3/-8-||--8--8-8-8-8-8--8--8-8-8-8-8---| 
 
 
                             D5  
  Gtr I 
------------------------------- 
|-----------------------------| 
|-----------------------------| 
|-----------------------------| 
|--8--8-8-8-8-8--8--8-8-8-8---| 
|--8--8-8-8-8-8--8--8-8-8-8-0-| 
|--8--8-8-8-8-8--8--8-8-8-8-0-| 
 
 
 --M-------------------------------------------| 
|-----------------------------|---------------------*| 
|-----------------------------|---------------------*| 
|-----------------------------|---------------------*| 
|-----------------------------|---------------------*| 
|--0--0-0-0-0-0--0--0-0-0-0-0-|--0--0-0-0-0-0--0----*| 
|--0--0-0-0-0-0--0--0-0-0-0-0-|--0--0-0-0-0-0--0----*| 
 
 
 
 
-------------------------------------------------------------------------------- 
 
 
Tablature Legend 
---------------- 
 h   - hammer-on 
 p   - pull-off 
 b   - bend 
 pb  - pre-bend 
 r   - bend release (if no number after the r, then release immediately) 
 /  - slide into or out of (from/to "nowhere") 
 s   - legato slide 
 S   - shift slide 
 - natural harmonic 
{n}  - artificial harmonic 
n(n) - tapped harmonic 
 ~   - vibrato 
 tr  - trill 
 T   - tap 
 TP  - trem. picking 
 PM  - palm muting 

/  - tremolo bar dip; n = amount to dip 
 
  - tremolo bar down 
 n/  - tremolo bar up 
/n  - tremolo bar inverted dip 
 =   - hold bend; also acts as connecting device for hammers/pulls 
 <> - volume swell (louder/softer) 
 x   - on rhythm slash represents muted slash 
 o   - on rhythm slash represents single note slash
		   
AcordesyTabs.com © 2008 Acordes y Tablaturas para guitarra. Tabs and Chords for guitar. Aviso Legal - Contacto
El uso de este sitio está sujeto a la aceptación de los términos y condiciones (31 usuarios online)