tablaturas, partituras y acordes para guitarra
Busca por banda/artista:
 
y/o título de la canción:
A B C D E F G H I J K L M N O P Q R S T U V W X Y Z 0 1 2 3 4 5 6 7 8 9 / Top 100 tabs
Categorías
Usuarios
usuario:
Darse de alta
password:
Artistas más visitados
Publicidad
TOP acordes y tablaturas de Juan Luis Guerra


Eres
de Juan Luis Guerra
Puntúa este acorde/tab:      
(0.4/5)
Reportar este acorde/tab
  Añadir a tus favoritos
  Imprimir
C                  		F
|------------0---------------0--|----------------------------0--|
|1-----3-----------1-----3------|3-----3-----1-----1-----3------|
|--0-----0-----0-----0-----0----|--2-----2-----2-----2-----2----|
|----2-----2-----2-----2--------|----3-----3-----3-----3--------|
|3------------------------------|-------------------------------|
|-------------------------------|1------------------------------|

 G                  		C
|----------------------------0--|------------0------------------|
|3-----3-----1-----1-----3-1----|1-----1------------------------|
|--0-----0-----0-----0----------|--0-----0----------------------|
|----0-----0-----0-----0--------|----2-----2--------------------|
|-------------------------------|3------------------------------|
|3------------------------------|-------------------------------|

Verso 1:

C			 F
Oh Señor en ti he confiado
	    G	         C
pongo en tus manos mi Espíritu
C			 F
Oh Señor me has redimido
	    G	         C
y en ti se alegra  mi corazón

Coro:

C
Eres mi fuerza y mi morada
F
eres la voz de mi madrugada
G
eres mi roca y mi torre fuerte
C
eres Señor

C
Eres amor Dios bueno y justo
F
eres mi canto y mi refugio
G
eres hermoso y luz del mundo
C
eres Señor

Verso 2:

C			F
Oh Señor bendito siempre
            G	         C
Alfa y Omega principio y fin
C			F
Oh Señor mi ser te adora
	    G	         C
y en tu presencia quiero vivir
		   
AcordesyTabs.com © 2008 Acordes y Tablaturas para guitarra. Tabs and Chords for guitar. Aviso Legal - Contacto
El uso de este sitio está sujeto a la aceptación de los términos y condiciones (15 usuarios online)